ISO-10303-21;
HEADER;
FILE_DESCRIPTION (( 'STEP AP214' ),
    '1' );
FILE_NAME ('145037.STEP',
    '2019-05-11T07:48:29',
    ( 'user' ),
    ( 'Î¢ÈíÖÐ¹ú' ),
    'SwSTEP 2.0',
    'SolidWorks 2016',
    '' );
FILE_SCHEMA (( 'AUTOMOTIVE_DESIGN' ));
ENDSEC;

DATA;
#1 = DIRECTION ( 'NONE',  ( 0.0000000000000000000, 0.0000000000000000000, 1.000000000000000000 ) ) ;
#2 = ORIENTED_EDGE ( 'NONE', *, *, #10, .T. ) ;
#3 = ORIENTED_EDGE ( 'NONE', *, *, #320, .F. ) ;
#4 = CARTESIAN_POINT ( 'NONE',  ( 39.83808996444516700, 0.0000000000000000000, 0.0000000000000000000 ) ) ;
#5 = STYLED_ITEM ( 'NONE', ( #199 ), #234 ) ;
#6 = DIRECTION ( 'NONE',  ( 0.0000000000000000000, 0.0000000000000000000, 1.000000000000000000 ) ) ;
#7 = DIRECTION ( 'NONE',  ( 0.0000000000000000000, -1.224646799147353000E-016, 1.000000000000000000 ) ) ;
#8 = ORIENTED_EDGE ( 'NONE', *, *, #94, .T. ) ;
#9 = ORIENTED_EDGE ( 'NONE', *, *, #18, .T. ) ;
#10 = EDGE_CURVE ( 'NONE', #217, #207, #121, .T. ) ;
#11 = CARTESIAN_POINT ( 'NONE',  ( 37.61159046424506900, 0.0000000000000000000, 2.639732760034191500E-015 ) ) ;
#12 = CARTESIAN_POINT ( 'NONE',  ( 42.75216247506207200, 0.0000000000000000000, 0.0000000000000000000 ) ) ;
#13 = DIRECTION ( 'NONE',  ( 0.0000000000000000000, 0.0000000000000000000, 1.000000000000000000 ) ) ;
#14 = EDGE_LOOP ( 'NONE', ( #166, #256, #9, #138 ) ) ;
#15 = ORIENTED_EDGE ( 'NONE', *, *, #292, .F. ) ;
#16 = PRODUCT_DEFINITION_CONTEXT ( 'detailed design', #343, 'design' ) ;
#17 =( GEOMETRIC_REPRESENTATION_CONTEXT ( 3 ) GLOBAL_UNCERTAINTY_ASSIGNED_CONTEXT ( ( #79 ) ) GLOBAL_UNIT_ASSIGNED_CONTEXT ( ( #110, #317, #135 ) ) REPRESENTATION_CONTEXT ( 'NONE', 'WORKASPACE' ) );
#18 = EDGE_CURVE ( 'NONE', #285, #143, #86, .T. ) ;
#19 = ORIENTED_EDGE ( 'NONE', *, *, #90, .F. ) ;
#20 = FILL_AREA_STYLE_COLOUR ( '', #70 ) ;
#21 = SPHERICAL_SURFACE ( 'NONE', #131, 37.61800000000019400 ) ;
#22 = DIRECTION ( 'NONE',  ( 0.0000000000000000000, -1.224646799147353000E-016, 1.000000000000000000 ) ) ;
#23 = ORIENTED_EDGE ( 'NONE', *, *, #292, .T. ) ;
#24 = DIRECTION ( 'NONE',  ( -1.000000000000000000, -0.0000000000000000000, -0.0000000000000000000 ) ) ;
#25 = UNCERTAINTY_MEASURE_WITH_UNIT (LENGTH_MEASURE( 1.000000000000000100E-005 ), #29, 'distance_accuracy_value', 'NONE');
#26 = LINE ( 'NONE', #122, #127 ) ;
#27 = AXIS2_PLACEMENT_3D ( 'NONE', #273, #175, #208 ) ;
#28 = DIRECTION ( 'NONE',  ( 0.0000000000000000000, -1.224646799147353200E-016, 1.000000000000000000 ) ) ;
#29 =( LENGTH_UNIT ( ) NAMED_UNIT ( * ) SI_UNIT ( .MILLI., .METRE. ) );
#30 = VERTEX_POINT ( 'NONE', #235 ) ;
#31 =( GEOMETRIC_REPRESENTATION_CONTEXT ( 3 ) GLOBAL_UNCERTAINTY_ASSIGNED_CONTEXT ( ( #147 ) ) GLOBAL_UNIT_ASSIGNED_CONTEXT ( ( #140, #258, #303 ) ) REPRESENTATION_CONTEXT ( 'NONE', 'WORKASPACE' ) );
#32 = DIRECTION ( 'NONE',  ( 0.0000000000000000000, -1.224646799147353200E-016, 1.000000000000000000 ) ) ;
#33 = FILL_AREA_STYLE ('',( #72 ) ) ;
#34 = DIRECTION ( 'NONE',  ( 0.0000000000000000000, 0.0000000000000000000, 1.000000000000000000 ) ) ;
#35 = CARTESIAN_POINT ( 'NONE',  ( 88.12859046424506500, 0.0000000000000000000, -4.535413575921504100E-016 ) ) ;
#36 = EDGE_LOOP ( 'NONE', ( #206, #87, #2, #97 ) ) ;
#37 = DIRECTION ( 'NONE',  ( -1.000000000000000000, -0.0000000000000000000, -0.0000000000000000000 ) ) ;
#38 = CARTESIAN_POINT ( 'NONE',  ( 3.573590464245053800, 0.0000000000000000000, -5.421010862427522200E-017 ) ) ;
#39 = AXIS2_PLACEMENT_3D ( 'NONE', #156, #49, #228 ) ;
#40 = CARTESIAN_POINT ( 'NONE',  ( 38.61124714899842300, 1.224646799147351300E-015, -9.999999999999984000 ) ) ;
#41 = ORIENTED_EDGE ( 'NONE', *, *, #169, .F. ) ;
#42 = EDGE_LOOP ( 'NONE', ( #3, #157, #306 ) ) ;
#43 = CARTESIAN_POINT ( 'NONE',  ( -0.5519199926577972300, 0.0000000000000000000, 9.999999999999991100 ) ) ;
#44 = CARTESIAN_POINT ( 'NONE',  ( -70.81240953575476700, 0.0000000000000000000, 0.0000000000000000000 ) ) ;
#45 = EDGE_CURVE ( 'NONE', #217, #71, #130, .T. ) ;
#46 = FILL_AREA_STYLE_COLOUR ( '', #264 ) ;
#47 = VECTOR ( 'NONE', #148, 1000.000000000000000 ) ;
#48 = EDGE_CURVE ( 'NONE', #67, #143, #81, .T. ) ;
#49 = DIRECTION ( 'NONE',  ( -1.000000000000000000, -0.0000000000000000000, -0.0000000000000000000 ) ) ;
#50 = LINE ( 'NONE', #311, #47 ) ;
#51 = AXIS2_PLACEMENT_3D ( 'NONE', #141, #294, #32 ) ;
#52 = CIRCLE ( 'NONE', #198, 37.61800000000019400 ) ;
#53 = CIRCLE ( 'NONE', #310, 10.00000000000000000 ) ;
#54 = DIRECTION ( 'NONE',  ( 0.0000000000000000000, 0.0000000000000000000, 1.000000000000000000 ) ) ;
#55 = SURFACE_STYLE_USAGE ( .BOTH. , #178 ) ;
#56 = AXIS2_PLACEMENT_3D ( 'NONE', #279, #159, #22 ) ;
#57 = CARTESIAN_POINT ( 'NONE',  ( 39.83808996444516700, 0.0000000000000000000, 0.0000000000000000000 ) ) ;
#58 = DIRECTION ( 'NONE',  ( 0.0000000000000000000, 1.000000000000000000, 0.0000000000000000000 ) ) ;
#59 = FACE_OUTER_BOUND ( 'NONE', #36, .T. ) ;
#60 = DIRECTION ( 'NONE',  ( 0.0000000000000000000, 0.0000000000000000000, 1.000000000000000000 ) ) ;
#61 = CLOSED_SHELL ( 'NONE', ( #145, #314, #119, #215, #197, #347 ) ) ;
#62 = CARTESIAN_POINT ( 'NONE',  ( 39.83808996444516700, 0.0000000000000000000, 10.00000000000000000 ) ) ;
#63 = DIRECTION ( 'NONE',  ( -1.000000000000000000, -0.0000000000000000000, -0.0000000000000000000 ) ) ;
#64 = CARTESIAN_POINT ( 'NONE',  ( 88.12859046424506500, 0.0000000000000000000, -4.535413575921504100E-016 ) ) ;
#65 = SURFACE_STYLE_FILL_AREA ( #257 ) ;
#66 = DIRECTION ( 'NONE',  ( -1.000000000000000000, -0.0000000000000000000, -0.0000000000000000000 ) ) ;
#67 = VERTEX_POINT ( 'NONE', #40 ) ;
#68 = AXIS2_PLACEMENT_3D ( 'NONE', #255, #80, #54 ) ;
#69 = CARTESIAN_POINT ( 'NONE',  ( 39.83808996444516700, 1.224646799147353300E-015, -10.00000000000000200 ) ) ;
#70 = COLOUR_RGB ( '',1.000000000000000000, 1.000000000000000000, 1.000000000000000000 ) ;
#71 = VERTEX_POINT ( 'NONE', #180 ) ;
#72 = FILL_AREA_STYLE_COLOUR ( '', #335 ) ;
#73 = EDGE_LOOP ( 'NONE', ( #282, #123, #15, #226 ) ) ;
#74 = AXIS2_PLACEMENT_3D ( 'NONE', #241, #99, #267 ) ;
#75 = CYLINDRICAL_SURFACE ( 'NONE', #232, 10.00000000000000000 ) ;
#76 = CYLINDRICAL_SURFACE ( 'NONE', #68, 10.00000000000000000 ) ;
#77 = FACE_OUTER_BOUND ( 'NONE', #92, .T. ) ;
#78 = CARTESIAN_POINT ( 'NONE',  ( -70.81240953575476700, 0.0000000000000000000, 0.0000000000000000000 ) ) ;
#79 = UNCERTAINTY_MEASURE_WITH_UNIT (LENGTH_MEASURE( 1.000000000000000100E-005 ), #110, 'distance_accuracy_value', 'NONE');
#80 = DIRECTION ( 'NONE',  ( -1.000000000000000000, -0.0000000000000000000, -0.0000000000000000000 ) ) ;
#81 = CIRCLE ( 'NONE', #260, 10.00000000000000000 ) ;
#82 = SPHERICAL_SURFACE ( 'NONE', #291, 50.51699999999999600 ) ;
#83 = CARTESIAN_POINT ( 'NONE',  ( -9.702612178336682500, 0.0000000000000000000, 10.00000000000000000 ) ) ;
#84 = DIRECTION ( 'NONE',  ( 0.0000000000000000000, 0.0000000000000000000, 1.000000000000000000 ) ) ;
#85 = PRESENTATION_LAYER_ASSIGNMENT (  '', '', ( #5 ) ) ;
#86 = LINE ( 'NONE', #83, #205 ) ;
#87 = ORIENTED_EDGE ( 'NONE', *, *, #90, .T. ) ;
#88 = ADVANCED_FACE ( 'NONE', ( #77 ), #82, .T. ) ;
#89 = AXIS2_PLACEMENT_3D ( 'NONE', #322, #93, #247 ) ;
#90 = EDGE_CURVE ( 'NONE', #71, #217, #111, .T. ) ;
#91 = DIRECTION ( 'NONE',  ( -1.000000000000000000, -0.0000000000000000000, -0.0000000000000000000 ) ) ;
#92 = EDGE_LOOP ( 'NONE', ( #23, #181, #41 ) ) ;
#93 = DIRECTION ( 'NONE',  ( 0.0000000000000000000, 0.0000000000000000000, 1.000000000000000000 ) ) ;
#94 = EDGE_CURVE ( 'NONE', #71, #327, #50, .T. ) ;
#95 = AXIS2_PLACEMENT_3D ( 'NONE', #270, #263, #7 ) ;
#96 = DIRECTION ( 'NONE',  ( -1.000000000000000000, -0.0000000000000000000, -0.0000000000000000000 ) ) ;
#97 = ORIENTED_EDGE ( 'NONE', *, *, #100, .F. ) ;
#98 = MANIFOLD_SOLID_BREP ( 'Ðý×ª1', #233 ) ;
#99 = DIRECTION ( 'NONE',  ( 0.0000000000000000000, 1.000000000000000000, 0.0000000000000000000 ) ) ;
#100 = EDGE_CURVE ( 'NONE', #327, #207, #193, .T. ) ;
#101 = CARTESIAN_POINT ( 'NONE',  ( 38.61124714899843000, 0.0000000000000000000, 0.0000000000000000000 ) ) ;
#102 = MECHANICAL_DESIGN_GEOMETRIC_PRESENTATION_REPRESENTATION (  '', ( #5 ), #124 ) ;
#103 = VERTEX_POINT ( 'NONE', #325 ) ;
#104 = PRODUCT_DEFINITION ( 'Î´Öª', '', #128, #16 ) ;
#105 = FACE_OUTER_BOUND ( 'NONE', #210, .T. ) ;
#106 = DIRECTION ( 'NONE',  ( 0.0000000000000000000, 1.000000000000000000, 0.0000000000000000000 ) ) ;
#107 = DIRECTION ( 'NONE',  ( 0.0000000000000000000, -1.000000000000000000, 0.0000000000000000000 ) ) ;
#108 = EDGE_LOOP ( 'NONE', ( #186, #265, #309 ) ) ;
#109 = DIRECTION ( 'NONE',  ( 0.0000000000000000000, 0.0000000000000000000, 1.000000000000000000 ) ) ;
#110 =( LENGTH_UNIT ( ) NAMED_UNIT ( * ) SI_UNIT ( .MILLI., .METRE. ) );
#111 = CIRCLE ( 'NONE', #274, 9.999999999999984000 ) ;
#112 = AXIS2_PLACEMENT_3D ( 'NONE', #57, #218, #248 ) ;
#113 = DIRECTION ( 'NONE',  ( -1.000000000000000000, -0.0000000000000000000, -0.0000000000000000000 ) ) ;
#114 = SURFACE_SIDE_STYLE ('',( #158 ) ) ;
#115 = DIRECTION ( 'NONE',  ( 0.0000000000000000000, 0.0000000000000000000, 1.000000000000000000 ) ) ;
#116 = FACE_OUTER_BOUND ( 'NONE', #187, .T. ) ;
#117 = ADVANCED_FACE ( 'NONE', ( #196 ), #118, .T. ) ;
#118 = SPHERICAL_SURFACE ( 'NONE', #74, 50.51699999999999600 ) ;
#119 = ADVANCED_FACE ( 'NONE', ( #308 ), #302, .F. ) ;
#120 = ORIENTED_EDGE ( 'NONE', *, *, #204, .F. ) ;
#121 = LINE ( 'NONE', #43, #146 ) ;
#122 = CARTESIAN_POINT ( 'NONE',  ( -9.702612178336682500, 1.224646799147353300E-015, -10.00000000000000000 ) ) ;
#123 = ORIENTED_EDGE ( 'NONE', *, *, #172, .T. ) ;
#124 =( GEOMETRIC_REPRESENTATION_CONTEXT ( 3 ) GLOBAL_UNCERTAINTY_ASSIGNED_CONTEXT ( ( #25 ) ) GLOBAL_UNIT_ASSIGNED_CONTEXT ( ( #29, #297, #286 ) ) REPRESENTATION_CONTEXT ( 'NONE', 'WORKASPACE' ) );
#125 = CIRCLE ( 'NONE', #164, 114.0040000000000000 ) ;
#126 = DIRECTION ( 'NONE',  ( 0.0000000000000000000, -1.000000000000000000, 0.0000000000000000000 ) ) ;
#127 = VECTOR ( 'NONE', #91, 1000.000000000000000 ) ;
#128 = PRODUCT_DEFINITION_FORMATION_WITH_SPECIFIED_SOURCE ( 'ÈÎºÎ', '', #179, .NOT_KNOWN. ) ;
#129 = ORIENTED_EDGE ( 'NONE', *, *, #224, .T. ) ;
#130 = CIRCLE ( 'NONE', #242, 9.999999999999984000 ) ;
#131 = AXIS2_PLACEMENT_3D ( 'NONE', #290, #58, #1 ) ;
#132 = CIRCLE ( 'NONE', #112, 9.999999999999998200 ) ;
#133 = SURFACE_STYLE_FILL_AREA ( #33 ) ;
#134 = PRESENTATION_STYLE_ASSIGNMENT (( #231 ) ) ;
#135 =( NAMED_UNIT ( * ) SI_UNIT ( $, .STERADIAN. ) SOLID_ANGLE_UNIT ( ) );
#136 = DIRECTION ( 'NONE',  ( 0.0000000000000000000, 0.0000000000000000000, -1.000000000000000000 ) ) ;
#137 = EDGE_LOOP ( 'NONE', ( #120, #152, #345 ) ) ;
#138 = ORIENTED_EDGE ( 'NONE', *, *, #48, .F. ) ;
#139 = CARTESIAN_POINT ( 'NONE',  ( 41.19159046424524500, 0.0000000000000000000, 2.249228055891993100E-015 ) ) ;
#140 =( LENGTH_UNIT ( ) NAMED_UNIT ( * ) SI_UNIT ( .MILLI., .METRE. ) );
#141 = CARTESIAN_POINT ( 'NONE',  ( -70.81240953575476700, 0.0000000000000000000, 0.0000000000000000000 ) ) ;
#142 = PRODUCT_RELATED_PRODUCT_CATEGORY ( 'part', '', ( #179 ) ) ;
#143 = VERTEX_POINT ( 'NONE', #301 ) ;
#144 = DIRECTION ( 'NONE',  ( 0.0000000000000000000, 1.000000000000000000, 0.0000000000000000000 ) ) ;
#145 = ADVANCED_FACE ( 'NONE', ( #105 ), #162, .T. ) ;
#146 = VECTOR ( 'NONE', #66, 1000.000000000000000 ) ;
#147 = UNCERTAINTY_MEASURE_WITH_UNIT (LENGTH_MEASURE( 1.000000000000000100E-005 ), #140, 'distance_accuracy_value', 'NONE');
#148 = DIRECTION ( 'NONE',  ( -1.000000000000000000, -0.0000000000000000000, -0.0000000000000000000 ) ) ;
#149 = AXIS2_PLACEMENT_3D ( 'NONE', #101, #315, #312 ) ;
#150 = DIRECTION ( 'NONE',  ( 0.0000000000000000000, -1.000000000000000000, 0.0000000000000000000 ) ) ;
#151 = CARTESIAN_POINT ( 'NONE',  ( 88.12859046424506500, 0.0000000000000000000, -4.535413575921504100E-016 ) ) ;
#152 = ORIENTED_EDGE ( 'NONE', *, *, #154, .T. ) ;
#153 = FACE_OUTER_BOUND ( 'NONE', #223, .T. ) ;
#154 = EDGE_CURVE ( 'NONE', #200, #30, #184, .T. ) ;
#155 = DIRECTION ( 'NONE',  ( -1.000000000000000000, -0.0000000000000000000, -0.0000000000000000000 ) ) ;
#156 = CARTESIAN_POINT ( 'NONE',  ( 39.83808996444516700, 0.0000000000000000000, 0.0000000000000000000 ) ) ;
#157 = ORIENTED_EDGE ( 'NONE', *, *, #48, .T. ) ;
#158 = SURFACE_STYLE_FILL_AREA ( #173 ) ;
#159 = DIRECTION ( 'NONE',  ( -0.0000000000000000000, 1.000000000000000000, 1.224646799147353200E-016 ) ) ;
#160 = FACE_OUTER_BOUND ( 'NONE', #333, .T. ) ;
#161 = DIRECTION ( 'NONE',  ( -1.000000000000000000, -0.0000000000000000000, -0.0000000000000000000 ) ) ;
#162 = SPHERICAL_SURFACE ( 'NONE', #230, 114.0040000000000000 ) ;
#163 = ORIENTED_EDGE ( 'NONE', *, *, #287, .T. ) ;
#164 = AXIS2_PLACEMENT_3D ( 'NONE', #44, #126, #250 ) ;
#165 = APPLICATION_CONTEXT ( 'automotive_design' ) ;
#166 = ORIENTED_EDGE ( 'NONE', *, *, #172, .F. ) ;
#167 = ORIENTED_EDGE ( 'NONE', *, *, #204, .T. ) ;
#168 = SURFACE_STYLE_USAGE ( .BOTH. , #280 ) ;
#169 = EDGE_CURVE ( 'NONE', #143, #332, #176, .T. ) ;
#170 = ORIENTED_EDGE ( 'NONE', *, *, #342, .T. ) ;
#171 = DIRECTION ( 'NONE',  ( 0.0000000000000000000, 1.000000000000000000, 0.0000000000000000000 ) ) ;
#172 = EDGE_CURVE ( 'NONE', #30, #67, #26, .T. ) ;
#173 = FILL_AREA_STYLE ('',( #20 ) ) ;
#174 = ORIENTED_EDGE ( 'NONE', *, *, #10, .F. ) ;
#175 = DIRECTION ( 'NONE',  ( 0.0000000000000000000, 1.000000000000000000, 0.0000000000000000000 ) ) ;
#176 = CIRCLE ( 'NONE', #249, 50.51699999999999600 ) ;
#177 = ORIENTED_EDGE ( 'NONE', *, *, #224, .F. ) ;
#178 = SURFACE_SIDE_STYLE ('',( #65 ) ) ;
#179 = PRODUCT ( '145037', '145037', '', ( #330 ) ) ;
#180 = CARTESIAN_POINT ( 'NONE',  ( 42.75216247506207200, 1.224646799147351900E-015, -9.999999999999984000 ) ) ;
#181 = ORIENTED_EDGE ( 'NONE', *, *, #320, .T. ) ;
#182 = ORIENTED_EDGE ( 'NONE', *, *, #305, .T. ) ;
#183 = AXIS2_PLACEMENT_3D ( 'NONE', #64, #195, #28 ) ;
#184 = CIRCLE ( 'NONE', #56, 37.61800000000019400 ) ;
#185 = APPLICATION_PROTOCOL_DEFINITION ( 'draft international standard', 'automotive_design', 1998, #165 ) ;
#186 = ORIENTED_EDGE ( 'NONE', *, *, #342, .F. ) ;
#187 = EDGE_LOOP ( 'NONE', ( #321, #8, #289, #174 ) ) ;
#188 = PRODUCT_DEFINITION_SHAPE ( 'NONE', 'NONE',  #104 ) ;
#189 = EDGE_CURVE ( 'NONE', #285, #30, #244, .T. ) ;
#190 = CARTESIAN_POINT ( 'NONE',  ( 3.573590464245053800, 0.0000000000000000000, -5.421010862427522200E-017 ) ) ;
#191 = SPHERICAL_SURFACE ( 'NONE', #268, 114.0040000000000000 ) ;
#192 = ADVANCED_FACE ( 'NONE', ( #253 ), #316, .T. ) ;
#193 = CIRCLE ( 'NONE', #39, 9.999999999999998200 ) ;
#194 = EDGE_LOOP ( 'NONE', ( #229, #170, #163 ) ) ;
#195 = DIRECTION ( 'NONE',  ( -0.0000000000000000000, 1.000000000000000000, 1.224646799147353200E-016 ) ) ;
#196 = FACE_OUTER_BOUND ( 'NONE', #42, .T. ) ;
#197 = ADVANCED_FACE ( 'NONE', ( #59 ), #276, .T. ) ;
#198 = AXIS2_PLACEMENT_3D ( 'NONE', #190, #209, #136 ) ;
#199 = PRESENTATION_STYLE_ASSIGNMENT (( #168 ) ) ;
#200 = VERTEX_POINT ( 'NONE', #346 ) ;
#201 = EDGE_CURVE ( 'NONE', #30, #285, #53, .T. ) ;
#202 = CARTESIAN_POINT ( 'NONE',  ( 38.61124714899843000, 0.0000000000000000000, 0.0000000000000000000 ) ) ;
#203 = PRESENTATION_STYLE_ASSIGNMENT (( #55 ) ) ;
#204 = EDGE_CURVE ( 'NONE', #200, #285, #269, .T. ) ;
#205 = VECTOR ( 'NONE', #161, 1000.000000000000000 ) ;
#206 = ORIENTED_EDGE ( 'NONE', *, *, #94, .F. ) ;
#207 = VERTEX_POINT ( 'NONE', #272 ) ;
#208 = DIRECTION ( 'NONE',  ( 0.0000000000000000000, 0.0000000000000000000, 1.000000000000000000 ) ) ;
#209 = DIRECTION ( 'NONE',  ( 0.0000000000000000000, -1.000000000000000000, 0.0000000000000000000 ) ) ;
#210 = EDGE_LOOP ( 'NONE', ( #262, #129, #239 ) ) ;
#211 = AXIS2_PLACEMENT_3D ( 'NONE', #38, #281, #240 ) ;
#212 = DIRECTION ( 'NONE',  ( 0.0000000000000000000, 0.0000000000000000000, -1.000000000000000000 ) ) ;
#213 = FACE_OUTER_BOUND ( 'NONE', #14, .T. ) ;
#214 = AXIS2_PLACEMENT_3D ( 'NONE', #220, #113, #216 ) ;
#215 = ADVANCED_FACE ( 'NONE', ( #344 ), #261, .F. ) ;
#216 = DIRECTION ( 'NONE',  ( 0.0000000000000000000, 0.0000000000000000000, 1.000000000000000000 ) ) ;
#217 = VERTEX_POINT ( 'NONE', #328 ) ;
#218 = DIRECTION ( 'NONE',  ( -1.000000000000000000, -0.0000000000000000000, -0.0000000000000000000 ) ) ;
#219 = ADVANCED_FACE ( 'NONE', ( #213 ), #76, .T. ) ;
#220 = CARTESIAN_POINT ( 'NONE',  ( -0.5519199926577972300, 0.0000000000000000000, 0.0000000000000000000 ) ) ;
#221 = CARTESIAN_POINT ( 'NONE',  ( -9.702612178336682500, 0.0000000000000000000, 0.0000000000000000000 ) ) ;
#222 = CARTESIAN_POINT ( 'NONE',  ( 3.573590464245053800, 0.0000000000000000000, -5.421010862427522200E-017 ) ) ;
#223 = EDGE_LOOP ( 'NONE', ( #177, #182, #19 ) ) ;
#224 = EDGE_CURVE ( 'NONE', #103, #71, #324, .T. ) ;
#225 = CARTESIAN_POINT ( 'NONE',  ( 3.573590464245053800, 0.0000000000000000000, -5.421010862427522200E-017 ) ) ;
#226 = ORIENTED_EDGE ( 'NONE', *, *, #18, .F. ) ;
#227 = ORIENTED_EDGE ( 'NONE', *, *, #154, .F. ) ;
#228 = DIRECTION ( 'NONE',  ( 0.0000000000000000000, 0.0000000000000000000, 1.000000000000000000 ) ) ;
#229 = ORIENTED_EDGE ( 'NONE', *, *, #271, .F. ) ;
#230 = AXIS2_PLACEMENT_3D ( 'NONE', #78, #106, #6 ) ;
#231 = SURFACE_STYLE_USAGE ( .BOTH. , #114 ) ;
#232 = AXIS2_PLACEMENT_3D ( 'NONE', #221, #252, #245 ) ;
#233 = CLOSED_SHELL ( 'NONE', ( #192, #318, #88, #117, #219, #275 ) ) ;
#234 = MANIFOLD_SOLID_BREP ( 'Ðý×ª3', #61 ) ;
#235 = CARTESIAN_POINT ( 'NONE',  ( 39.83808996444516700, 1.224646799147353300E-015, -10.00000000000000000 ) ) ;
#236 = FACE_OUTER_BOUND ( 'NONE', #73, .T. ) ;
#237 = CARTESIAN_POINT ( 'NONE',  ( 42.75216247506207200, 0.0000000000000000000, 0.0000000000000000000 ) ) ;
#238 = CARTESIAN_POINT ( 'NONE',  ( -70.81240953575476700, 0.0000000000000000000, 0.0000000000000000000 ) ) ;
#239 = ORIENTED_EDGE ( 'NONE', *, *, #45, .F. ) ;
#240 = DIRECTION ( 'NONE',  ( 0.0000000000000000000, 0.0000000000000000000, 1.000000000000000000 ) ) ;
#241 = CARTESIAN_POINT ( 'NONE',  ( 88.12859046424506500, 0.0000000000000000000, -4.535413575921504100E-016 ) ) ;
#242 = AXIS2_PLACEMENT_3D ( 'NONE', #237, #37, #84 ) ;
#243 = SHAPE_DEFINITION_REPRESENTATION ( #188, #277 ) ;
#244 = CIRCLE ( 'NONE', #266, 10.00000000000000000 ) ;
#245 = DIRECTION ( 'NONE',  ( 0.0000000000000000000, 0.0000000000000000000, 1.000000000000000000 ) ) ;
#246 = ORIENTED_EDGE ( 'NONE', *, *, #201, .F. ) ;
#247 = DIRECTION ( 'NONE',  ( 1.000000000000000000, 0.0000000000000000000, 0.0000000000000000000 ) ) ;
#248 = DIRECTION ( 'NONE',  ( 0.0000000000000000000, 0.0000000000000000000, 1.000000000000000000 ) ) ;
#249 = AXIS2_PLACEMENT_3D ( 'NONE', #35, #107, #339 ) ;
#250 = DIRECTION ( 'NONE',  ( 0.0000000000000000000, 0.0000000000000000000, -1.000000000000000000 ) ) ;
#251 =( GEOMETRIC_REPRESENTATION_CONTEXT ( 3 ) GLOBAL_UNCERTAINTY_ASSIGNED_CONTEXT ( ( #259 ) ) GLOBAL_UNIT_ASSIGNED_CONTEXT ( ( #295, #331, #296 ) ) REPRESENTATION_CONTEXT ( 'NONE', 'WORKASPACE' ) );
#252 = DIRECTION ( 'NONE',  ( -1.000000000000000000, -0.0000000000000000000, -0.0000000000000000000 ) ) ;
#253 = FACE_OUTER_BOUND ( 'NONE', #137, .T. ) ;
#254 = DIRECTION ( 'NONE',  ( -1.000000000000000000, -0.0000000000000000000, -0.0000000000000000000 ) ) ;
#255 = CARTESIAN_POINT ( 'NONE',  ( -9.702612178336682500, 0.0000000000000000000, 0.0000000000000000000 ) ) ;
#256 = ORIENTED_EDGE ( 'NONE', *, *, #201, .T. ) ;
#257 = FILL_AREA_STYLE ('',( #46 ) ) ;
#258 =( NAMED_UNIT ( * ) PLANE_ANGLE_UNIT ( ) SI_UNIT ( $, .RADIAN. ) );
#259 = UNCERTAINTY_MEASURE_WITH_UNIT (LENGTH_MEASURE( 1.000000000000000100E-005 ), #295, 'distance_accuracy_value', 'NONE');
#260 = AXIS2_PLACEMENT_3D ( 'NONE', #202, #254, #278 ) ;
#261 = SPHERICAL_SURFACE ( 'NONE', #27, 37.61800000000019400 ) ;
#262 = ORIENTED_EDGE ( 'NONE', *, *, #305, .F. ) ;
#263 = DIRECTION ( 'NONE',  ( -0.0000000000000000000, 1.000000000000000000, 1.224646799147353200E-016 ) ) ;
#264 = COLOUR_RGB ( '',1.000000000000000000, 1.000000000000000000, 1.000000000000000000 ) ;
#265 = ORIENTED_EDGE ( 'NONE', *, *, #271, .T. ) ;
#266 = AXIS2_PLACEMENT_3D ( 'NONE', #4, #96, #13 ) ;
#267 = DIRECTION ( 'NONE',  ( 0.0000000000000000000, 0.0000000000000000000, 1.000000000000000000 ) ) ;
#268 = AXIS2_PLACEMENT_3D ( 'NONE', #238, #288, #293 ) ;
#269 = CIRCLE ( 'NONE', #283, 37.61800000000019400 ) ;
#270 = CARTESIAN_POINT ( 'NONE',  ( 3.573590464245053800, 0.0000000000000000000, -5.421010862427522200E-017 ) ) ;
#271 = EDGE_CURVE ( 'NONE', #326, #327, #329, .T. ) ;
#272 = CARTESIAN_POINT ( 'NONE',  ( 39.83808996444516700, 0.0000000000000000000, 10.00000000000000200 ) ) ;
#273 = CARTESIAN_POINT ( 'NONE',  ( 3.573590464245053800, 0.0000000000000000000, -5.421010862427522200E-017 ) ) ;
#274 = AXIS2_PLACEMENT_3D ( 'NONE', #12, #155, #337 ) ;
#275 = ADVANCED_FACE ( 'NONE', ( #160 ), #21, .T. ) ;
#276 = CYLINDRICAL_SURFACE ( 'NONE', #334, 9.999999999999991100 ) ;
#277 = ADVANCED_BREP_SHAPE_REPRESENTATION ( '145037', ( #98, #234, #89 ), #251 ) ;
#278 = DIRECTION ( 'NONE',  ( 0.0000000000000000000, 0.0000000000000000000, 1.000000000000000000 ) ) ;
#279 = CARTESIAN_POINT ( 'NONE',  ( 3.573590464245053800, 0.0000000000000000000, -5.421010862427522200E-017 ) ) ;
#280 = SURFACE_SIDE_STYLE ('',( #133 ) ) ;
#281 = DIRECTION ( 'NONE',  ( 0.0000000000000000000, 1.000000000000000000, 0.0000000000000000000 ) ) ;
#282 = ORIENTED_EDGE ( 'NONE', *, *, #189, .T. ) ;
#283 = AXIS2_PLACEMENT_3D ( 'NONE', #225, #150, #212 ) ;
#284 = CIRCLE ( 'NONE', #149, 10.00000000000000000 ) ;
#285 = VERTEX_POINT ( 'NONE', #62 ) ;
#286 =( NAMED_UNIT ( * ) SI_UNIT ( $, .STERADIAN. ) SOLID_ANGLE_UNIT ( ) );
#287 = EDGE_CURVE ( 'NONE', #207, #327, #132, .T. ) ;
#288 = DIRECTION ( 'NONE',  ( 0.0000000000000000000, 1.000000000000000000, 0.0000000000000000000 ) ) ;
#289 = ORIENTED_EDGE ( 'NONE', *, *, #287, .F. ) ;
#290 = CARTESIAN_POINT ( 'NONE',  ( 3.573590464245053800, 0.0000000000000000000, -5.421010862427522200E-017 ) ) ;
#291 = AXIS2_PLACEMENT_3D ( 'NONE', #151, #144, #34 ) ;
#292 = EDGE_CURVE ( 'NONE', #143, #67, #284, .T. ) ;
#293 = DIRECTION ( 'NONE',  ( 0.0000000000000000000, 0.0000000000000000000, 1.000000000000000000 ) ) ;
#294 = DIRECTION ( 'NONE',  ( -0.0000000000000000000, 1.000000000000000000, 1.224646799147353200E-016 ) ) ;
#295 =( LENGTH_UNIT ( ) NAMED_UNIT ( * ) SI_UNIT ( .MILLI., .METRE. ) );
#296 =( NAMED_UNIT ( * ) SI_UNIT ( $, .STERADIAN. ) SOLID_ANGLE_UNIT ( ) );
#297 =( NAMED_UNIT ( * ) PLANE_ANGLE_UNIT ( ) SI_UNIT ( $, .RADIAN. ) );
#298 = AXIS2_PLACEMENT_3D ( 'NONE', #222, #171, #109 ) ;
#299 = STYLED_ITEM ( 'NONE', ( #203 ), #277 ) ;
#300 = CYLINDRICAL_SURFACE ( 'NONE', #214, 9.999999999999991100 ) ;
#301 = CARTESIAN_POINT ( 'NONE',  ( 38.61124714899842300, 0.0000000000000000000, 9.999999999999984000 ) ) ;
#302 = SPHERICAL_SURFACE ( 'NONE', #211, 37.61800000000019400 ) ;
#303 =( NAMED_UNIT ( * ) SI_UNIT ( $, .STERADIAN. ) SOLID_ANGLE_UNIT ( ) );
#304 = STYLED_ITEM ( 'NONE', ( #134 ), #98 ) ;
#305 = EDGE_CURVE ( 'NONE', #103, #217, #125, .T. ) ;
#306 = ORIENTED_EDGE ( 'NONE', *, *, #169, .T. ) ;
#307 = CARTESIAN_POINT ( 'NONE',  ( 39.83808996444516700, 0.0000000000000000000, 0.0000000000000000000 ) ) ;
#308 = FACE_OUTER_BOUND ( 'NONE', #108, .T. ) ;
#309 = ORIENTED_EDGE ( 'NONE', *, *, #100, .T. ) ;
#310 = AXIS2_PLACEMENT_3D ( 'NONE', #307, #63, #115 ) ;
#311 = CARTESIAN_POINT ( 'NONE',  ( -0.5519199926577972300, 1.224646799147352300E-015, -9.999999999999991100 ) ) ;
#312 = DIRECTION ( 'NONE',  ( 0.0000000000000000000, 0.0000000000000000000, 1.000000000000000000 ) ) ;
#313 = PRESENTATION_LAYER_ASSIGNMENT (  '', '', ( #299 ) ) ;
#314 = ADVANCED_FACE ( 'NONE', ( #116 ), #300, .T. ) ;
#315 = DIRECTION ( 'NONE',  ( -1.000000000000000000, -0.0000000000000000000, -0.0000000000000000000 ) ) ;
#316 = SPHERICAL_SURFACE ( 'NONE', #298, 37.61800000000019400 ) ;
#317 =( NAMED_UNIT ( * ) PLANE_ANGLE_UNIT ( ) SI_UNIT ( $, .RADIAN. ) );
#318 = ADVANCED_FACE ( 'NONE', ( #236 ), #75, .T. ) ;
#319 = PRESENTATION_LAYER_ASSIGNMENT (  '', '', ( #304 ) ) ;
#320 = EDGE_CURVE ( 'NONE', #67, #332, #323, .T. ) ;
#321 = ORIENTED_EDGE ( 'NONE', *, *, #45, .T. ) ;
#322 = CARTESIAN_POINT ( 'NONE',  ( 0.0000000000000000000, 0.0000000000000000000, 0.0000000000000000000 ) ) ;
#323 = CIRCLE ( 'NONE', #183, 50.51699999999999600 ) ;
#324 = CIRCLE ( 'NONE', #51, 114.0040000000000000 ) ;
#325 = CARTESIAN_POINT ( 'NONE',  ( 43.19159046424524500, 0.0000000000000000000, 6.980731684499742900E-015 ) ) ;
#326 = VERTEX_POINT ( 'NONE', #139 ) ;
#327 = VERTEX_POINT ( 'NONE', #69 ) ;
#328 = CARTESIAN_POINT ( 'NONE',  ( 42.75216247506207200, 0.0000000000000000000, 9.999999999999984000 ) ) ;
#329 = CIRCLE ( 'NONE', #95, 37.61800000000019400 ) ;
#330 = PRODUCT_CONTEXT ( 'NONE', #165, 'mechanical' ) ;
#331 =( NAMED_UNIT ( * ) PLANE_ANGLE_UNIT ( ) SI_UNIT ( $, .RADIAN. ) );
#332 = VERTEX_POINT ( 'NONE', #11 ) ;
#333 = EDGE_LOOP ( 'NONE', ( #227, #167, #246 ) ) ;
#334 = AXIS2_PLACEMENT_3D ( 'NONE', #340, #24, #60 ) ;
#335 = COLOUR_RGB ( '',1.000000000000000000, 1.000000000000000000, 1.000000000000000000 ) ;
#336 = MECHANICAL_DESIGN_GEOMETRIC_PRESENTATION_REPRESENTATION (  '', ( #299 ), #31 ) ;
#337 = DIRECTION ( 'NONE',  ( 0.0000000000000000000, 0.0000000000000000000, 1.000000000000000000 ) ) ;
#338 = APPLICATION_PROTOCOL_DEFINITION ( 'draft international standard', 'automotive_design', 1998, #343 ) ;
#339 = DIRECTION ( 'NONE',  ( 0.0000000000000000000, 0.0000000000000000000, -1.000000000000000000 ) ) ;
#340 = CARTESIAN_POINT ( 'NONE',  ( -0.5519199926577972300, 0.0000000000000000000, 0.0000000000000000000 ) ) ;
#341 = MECHANICAL_DESIGN_GEOMETRIC_PRESENTATION_REPRESENTATION (  '', ( #304 ), #17 ) ;
#342 = EDGE_CURVE ( 'NONE', #326, #207, #52, .T. ) ;
#343 = APPLICATION_CONTEXT ( 'automotive_design' ) ;
#344 = FACE_OUTER_BOUND ( 'NONE', #194, .T. ) ;
#345 = ORIENTED_EDGE ( 'NONE', *, *, #189, .F. ) ;
#346 = CARTESIAN_POINT ( 'NONE',  ( 41.19159046424524500, 0.0000000000000000000, 2.249228055891993100E-015 ) ) ;
#347 = ADVANCED_FACE ( 'NONE', ( #153 ), #191, .T. ) ;
ENDSEC;
END-ISO-10303-21;
