ISO-10303-21;
HEADER;
FILE_DESCRIPTION (( 'STEP AP214' ),
    '1' );
FILE_NAME ('145039.STEP',
    '2019-05-12T02:24:17',
    ( 'user' ),
    ( 'Î¢ÈíÖÐ¹ú' ),
    'SwSTEP 2.0',
    'SolidWorks 2016',
    '' );
FILE_SCHEMA (( 'AUTOMOTIVE_DESIGN' ));
ENDSEC;

DATA;
#1 = CARTESIAN_POINT ( 'NONE',  ( 39.78167055675058400, 0.0000000000000000000, 0.0000000000000000000 ) ) ;
#2 = DIRECTION ( 'NONE',  ( -0.0000000000000000000, 1.000000000000000000, 1.224646799147353200E-016 ) ) ;
#3 = CARTESIAN_POINT ( 'NONE',  ( -23.69833102642519800, 0.0000000000000000000, 0.0000000000000000000 ) ) ;
#4 =( NAMED_UNIT ( * ) PLANE_ANGLE_UNIT ( ) SI_UNIT ( $, .RADIAN. ) );
#5 = CARTESIAN_POINT ( 'NONE',  ( 33.16908980762755700, 1.530808498934191900E-015, -12.50000000000000400 ) ) ;
#6 = CYLINDRICAL_SURFACE ( 'NONE', #152, 12.50000000000001600 ) ;
#7 = SURFACE_SIDE_STYLE ('',( #340 ) ) ;
#8 = VECTOR ( 'NONE', #113, 1000.000000000000000 ) ;
#9 = CARTESIAN_POINT ( 'NONE',  ( 14.87966897357473400, 0.0000000000000000000, 1.355252715606880500E-017 ) ) ;
#10 = VERTEX_POINT ( 'NONE', #196 ) ;
#11 =( GEOMETRIC_REPRESENTATION_CONTEXT ( 3 ) GLOBAL_UNCERTAINTY_ASSIGNED_CONTEXT ( ( #68 ) ) GLOBAL_UNIT_ASSIGNED_CONTEXT ( ( #194, #4, #170 ) ) REPRESENTATION_CONTEXT ( 'NONE', 'WORKASPACE' ) );
#12 = DIRECTION ( 'NONE',  ( 0.0000000000000000000, -1.000000000000000000, 0.0000000000000000000 ) ) ;
#13 = ADVANCED_FACE ( 'NONE', ( #71 ), #278, .T. ) ;
#14 = DIRECTION ( 'NONE',  ( 0.0000000000000000000, 1.000000000000000000, 0.0000000000000000000 ) ) ;
#15 = CIRCLE ( 'NONE', #199, 23.62100000000005600 ) ;
#16 = ORIENTED_EDGE ( 'NONE', *, *, #195, .F. ) ;
#17 = EDGE_CURVE ( 'NONE', #24, #189, #205, .T. ) ;
#18 = VECTOR ( 'NONE', #274, 1000.000000000000000 ) ;
#19 = ORIENTED_EDGE ( 'NONE', *, *, #17, .T. ) ;
#20 = CIRCLE ( 'NONE', #336, 23.62100000000005600 ) ;
#21 = DIRECTION ( 'NONE',  ( 0.0000000000000000000, 0.0000000000000000000, 1.000000000000000000 ) ) ;
#22 = AXIS2_PLACEMENT_3D ( 'NONE', #290, #263, #133 ) ;
#23 = EDGE_LOOP ( 'NONE', ( #302, #102, #258 ) ) ;
#24 = VERTEX_POINT ( 'NONE', #5 ) ;
#25 = DIRECTION ( 'NONE',  ( 0.0000000000000000000, 0.0000000000000000000, 1.000000000000000000 ) ) ;
#26 = CARTESIAN_POINT ( 'NONE',  ( 34.92216485108465200, 1.530808498934194300E-015, -12.50000000000002100 ) ) ;
#27 = AXIS2_PLACEMENT_3D ( 'NONE', #193, #2, #169 ) ;
#28 = DIRECTION ( 'NONE',  ( 0.0000000000000000000, 0.0000000000000000000, 1.000000000000000000 ) ) ;
#29 = CARTESIAN_POINT ( 'NONE',  ( -9.702612178336682500, 0.0000000000000000000, 12.50000000000000000 ) ) ;
#30 = DIRECTION ( 'NONE',  ( -1.000000000000000000, -0.0000000000000000000, -0.0000000000000000000 ) ) ;
#31 = SURFACE_STYLE_USAGE ( .BOTH. , #223 ) ;
#32 = DIRECTION ( 'NONE',  ( 0.0000000000000000000, 0.0000000000000000000, 1.000000000000000000 ) ) ;
#33 = ORIENTED_EDGE ( 'NONE', *, *, #88, .F. ) ;
#34 = DIRECTION ( 'NONE',  ( 0.0000000000000000000, 0.0000000000000000000, 1.000000000000000000 ) ) ;
#35 =( NAMED_UNIT ( * ) SI_UNIT ( $, .STERADIAN. ) SOLID_ANGLE_UNIT ( ) );
#36 = EDGE_LOOP ( 'NONE', ( #317, #86, #108, #77 ) ) ;
#37 = ORIENTED_EDGE ( 'NONE', *, *, #88, .T. ) ;
#38 = EDGE_CURVE ( 'NONE', #209, #83, #134, .T. ) ;
#39 = DIRECTION ( 'NONE',  ( -1.000000000000000000, -0.0000000000000000000, -0.0000000000000000000 ) ) ;
#40 = ADVANCED_FACE ( 'NONE', ( #346 ), #93, .T. ) ;
#41 = FACE_OUTER_BOUND ( 'NONE', #176, .T. ) ;
#42 = PRESENTATION_LAYER_ASSIGNMENT (  '', '', ( #255 ) ) ;
#43 = CYLINDRICAL_SURFACE ( 'NONE', #303, 12.50000000000001600 ) ;
#44 = SPHERICAL_SURFACE ( 'NONE', #183, 23.62100000000005600 ) ;
#45 = ORIENTED_EDGE ( 'NONE', *, *, #285, .F. ) ;
#46 = CLOSED_SHELL ( 'NONE', ( #282, #154, #125, #75, #305, #40 ) ) ;
#47 = AXIS2_PLACEMENT_3D ( 'NONE', #270, #89, #243 ) ;
#48 = ORIENTED_EDGE ( 'NONE', *, *, #72, .F. ) ;
#49 =( GEOMETRIC_REPRESENTATION_CONTEXT ( 3 ) GLOBAL_UNCERTAINTY_ASSIGNED_CONTEXT ( ( #341 ) ) GLOBAL_UNIT_ASSIGNED_CONTEXT ( ( #272, #62, #217 ) ) REPRESENTATION_CONTEXT ( 'NONE', 'WORKASPACE' ) );
#50 = EDGE_CURVE ( 'NONE', #294, #24, #173, .T. ) ;
#51 = CARTESIAN_POINT ( 'NONE',  ( 63.58466897357474300, 0.0000000000000000000, -6.496984252233883000E-017 ) ) ;
#52 = CIRCLE ( 'NONE', #235, 12.50000000000000000 ) ;
#53 = DIRECTION ( 'NONE',  ( 0.0000000000000000000, -1.000000000000000000, 0.0000000000000000000 ) ) ;
#54 = DIRECTION ( 'NONE',  ( 0.0000000000000000000, 0.0000000000000000000, -1.000000000000000000 ) ) ;
#55 = EDGE_CURVE ( 'NONE', #95, #209, #78, .T. ) ;
#56 = VERTEX_POINT ( 'NONE', #297 ) ;
#57 = CIRCLE ( 'NONE', #109, 12.50000000000000000 ) ;
#58 = CARTESIAN_POINT ( 'NONE',  ( 34.92216485108465900, 1.530808498934191500E-015, -12.50000000000000000 ) ) ;
#59 = PRODUCT_CONTEXT ( 'NONE', #167, 'mechanical' ) ;
#60 = DIRECTION ( 'NONE',  ( 0.0000000000000000000, 0.0000000000000000000, 1.000000000000000000 ) ) ;
#61 = PRODUCT ( '145039', '145039', '', ( #59 ) ) ;
#62 =( NAMED_UNIT ( * ) PLANE_ANGLE_UNIT ( ) SI_UNIT ( $, .RADIAN. ) );
#63 = DIRECTION ( 'NONE',  ( -1.000000000000000000, -0.0000000000000000000, -0.0000000000000000000 ) ) ;
#64 = COLOUR_RGB ( '',1.000000000000000000, 1.000000000000000000, 1.000000000000000000 ) ;
#65 = DIRECTION ( 'NONE',  ( 0.0000000000000000000, -1.224646799147353200E-016, 1.000000000000000000 ) ) ;
#66 = FILL_AREA_STYLE ('',( #301 ) ) ;
#67 = CARTESIAN_POINT ( 'NONE',  ( 38.50066897357479000, 0.0000000000000000000, 1.459921629289053900E-015 ) ) ;
#68 = UNCERTAINTY_MEASURE_WITH_UNIT (LENGTH_MEASURE( 1.000000000000000100E-005 ), #194, 'distance_accuracy_value', 'NONE');
#69 = EDGE_LOOP ( 'NONE', ( #198, #175, #248 ) ) ;
#70 = EDGE_LOOP ( 'NONE', ( #150, #257, #37 ) ) ;
#71 = FACE_OUTER_BOUND ( 'NONE', #337, .T. ) ;
#72 = EDGE_CURVE ( 'NONE', #83, #204, #81, .T. ) ;
#73 = AXIS2_PLACEMENT_3D ( 'NONE', #174, #225, #298 ) ;
#74 = DIRECTION ( 'NONE',  ( -1.000000000000000000, -0.0000000000000000000, -0.0000000000000000000 ) ) ;
#75 = ADVANCED_FACE ( 'NONE', ( #242 ), #220, .F. ) ;
#76 = COLOUR_RGB ( '',1.000000000000000000, 1.000000000000000000, 1.000000000000000000 ) ;
#77 = ORIENTED_EDGE ( 'NONE', *, *, #104, .F. ) ;
#78 = CIRCLE ( 'NONE', #148, 12.50000000000001200 ) ;
#79 = AXIS2_PLACEMENT_3D ( 'NONE', #188, #343, #163 ) ;
#80 = PRODUCT_DEFINITION_SHAPE ( 'NONE', 'NONE',  #232 ) ;
#81 = CIRCLE ( 'NONE', #47, 12.50000000000002000 ) ;
#82 = CIRCLE ( 'NONE', #90, 12.50000000000000000 ) ;
#83 = VERTEX_POINT ( 'NONE', #26 ) ;
#84 = CARTESIAN_POINT ( 'NONE',  ( 30.70066897357473600, 0.0000000000000000000, 1.948594424635739900E-015 ) ) ;
#85 = CARTESIAN_POINT ( 'NONE',  ( 14.87966897357473400, 0.0000000000000000000, 1.355252715606880500E-017 ) ) ;
#86 = ORIENTED_EDGE ( 'NONE', *, *, #285, .T. ) ;
#87 =( NAMED_UNIT ( * ) SI_UNIT ( $, .STERADIAN. ) SOLID_ANGLE_UNIT ( ) );
#88 = EDGE_CURVE ( 'NONE', #204, #83, #132, .T. ) ;
#89 = DIRECTION ( 'NONE',  ( -1.000000000000000000, -0.0000000000000000000, -0.0000000000000000000 ) ) ;
#90 = AXIS2_PLACEMENT_3D ( 'NONE', #249, #330, #32 ) ;
#91 = CARTESIAN_POINT ( 'NONE',  ( 63.58466897357474300, 0.0000000000000000000, -6.496984252233883000E-017 ) ) ;
#92 = DIRECTION ( 'NONE',  ( 0.0000000000000000000, -1.000000000000000000, 0.0000000000000000000 ) ) ;
#93 = SPHERICAL_SURFACE ( 'NONE', #184, 64.69899999999999800 ) ;
#94 = CIRCLE ( 'NONE', #218, 12.50000000000001200 ) ;
#95 = VERTEX_POINT ( 'NONE', #140 ) ;
#96 = LINE ( 'NONE', #142, #18 ) ;
#97 = AXIS2_PLACEMENT_3D ( 'NONE', #267, #347, #28 ) ;
#98 = ORIENTED_EDGE ( 'NONE', *, *, #241, .T. ) ;
#99 = DIRECTION ( 'NONE',  ( 0.0000000000000000000, 1.000000000000000000, 0.0000000000000000000 ) ) ;
#100 = ADVANCED_FACE ( 'NONE', ( #41 ), #300, .T. ) ;
#101 = FACE_OUTER_BOUND ( 'NONE', #326, .T. ) ;
#102 = ORIENTED_EDGE ( 'NONE', *, *, #206, .T. ) ;
#103 = VERTEX_POINT ( 'NONE', #58 ) ;
#104 = EDGE_CURVE ( 'NONE', #24, #294, #57, .T. ) ;
#105 = EDGE_CURVE ( 'NONE', #56, #10, #20, .T. ) ;
#106 = STYLED_ITEM ( 'NONE', ( #260 ), #284 ) ;
#107 = SPHERICAL_SURFACE ( 'NONE', #254, 64.69899999999999800 ) ;
#108 = ORIENTED_EDGE ( 'NONE', *, *, #344, .T. ) ;
#109 = AXIS2_PLACEMENT_3D ( 'NONE', #319, #136, #293 ) ;
#110 = DIRECTION ( 'NONE',  ( 0.0000000000000000000, 0.0000000000000000000, 1.000000000000000000 ) ) ;
#111 =( LENGTH_UNIT ( ) NAMED_UNIT ( * ) SI_UNIT ( .MILLI., .METRE. ) );
#112 = DIRECTION ( 'NONE',  ( 0.0000000000000000000, 1.000000000000000000, 0.0000000000000000000 ) ) ;
#113 = DIRECTION ( 'NONE',  ( -1.000000000000000000, -0.0000000000000000000, -0.0000000000000000000 ) ) ;
#114 = CARTESIAN_POINT ( 'NONE',  ( 41.00066897357479700, 0.0000000000000000000, 3.961671162901729500E-015 ) ) ;
#115 = ORIENTED_EDGE ( 'NONE', *, *, #195, .T. ) ;
#116 = FILL_AREA_STYLE ('',( #227 ) ) ;
#117 = CIRCLE ( 'NONE', #287, 23.62100000000005900 ) ;
#118 = VECTOR ( 'NONE', #179, 1000.000000000000000 ) ;
#119 = ORIENTED_EDGE ( 'NONE', *, *, #309, .T. ) ;
#120 = EDGE_CURVE ( 'NONE', #312, #209, #171, .T. ) ;
#121 = ORIENTED_EDGE ( 'NONE', *, *, #55, .T. ) ;
#122 = DIRECTION ( 'NONE',  ( 0.0000000000000000000, 1.000000000000000000, 0.0000000000000000000 ) ) ;
#123 = PRESENTATION_LAYER_ASSIGNMENT (  '', '', ( #106 ) ) ;
#124 = CARTESIAN_POINT ( 'NONE',  ( 63.58466897357474300, 0.0000000000000000000, -6.496984252233883000E-017 ) ) ;
#125 = ADVANCED_FACE ( 'NONE', ( #101 ), #161, .F. ) ;
#126 = CLOSED_SHELL ( 'NONE', ( #334, #100, #13, #231, #180, #203 ) ) ;
#127 = UNCERTAINTY_MEASURE_WITH_UNIT (LENGTH_MEASURE( 1.000000000000000100E-005 ), #145, 'distance_accuracy_value', 'NONE');
#128 = COLOUR_RGB ( '',1.000000000000000000, 1.000000000000000000, 1.000000000000000000 ) ;
#129 = ORIENTED_EDGE ( 'NONE', *, *, #329, .T. ) ;
#130 = AXIS2_PLACEMENT_3D ( 'NONE', #137, #295, #110 ) ;
#131 = ORIENTED_EDGE ( 'NONE', *, *, #38, .F. ) ;
#132 = CIRCLE ( 'NONE', #130, 12.50000000000002000 ) ;
#133 = DIRECTION ( 'NONE',  ( 0.0000000000000000000, 0.0000000000000000000, 1.000000000000000000 ) ) ;
#134 = LINE ( 'NONE', #222, #279 ) ;
#135 = EDGE_CURVE ( 'NONE', #294, #189, #233, .T. ) ;
#136 = DIRECTION ( 'NONE',  ( -1.000000000000000000, -0.0000000000000000000, -0.0000000000000000000 ) ) ;
#137 = CARTESIAN_POINT ( 'NONE',  ( 34.92216485108465200, 0.0000000000000000000, 0.0000000000000000000 ) ) ;
#138 = SURFACE_SIDE_STYLE ('',( #335 ) ) ;
#139 = AXIS2_PLACEMENT_3D ( 'NONE', #91, #246, #65 ) ;
#140 = CARTESIAN_POINT ( 'NONE',  ( 39.78167055675058400, 0.0000000000000000000, 12.50000000000001200 ) ) ;
#141 = MECHANICAL_DESIGN_GEOMETRIC_PRESENTATION_REPRESENTATION (  '', ( #106 ), #160 ) ;
#142 = CARTESIAN_POINT ( 'NONE',  ( -9.702612178336682500, 1.530808498934191500E-015, -12.50000000000000000 ) ) ;
#143 = EDGE_CURVE ( 'NONE', #209, #95, #94, .T. ) ;
#144 = DIRECTION ( 'NONE',  ( 0.0000000000000000000, 0.0000000000000000000, 1.000000000000000000 ) ) ;
#145 =( LENGTH_UNIT ( ) NAMED_UNIT ( * ) SI_UNIT ( .MILLI., .METRE. ) );
#146 = CYLINDRICAL_SURFACE ( 'NONE', #22, 12.50000000000000000 ) ;
#147 =( NAMED_UNIT ( * ) PLANE_ANGLE_UNIT ( ) SI_UNIT ( $, .RADIAN. ) );
#148 = AXIS2_PLACEMENT_3D ( 'NONE', #1, #168, #324 ) ;
#149 = DIRECTION ( 'NONE',  ( 0.0000000000000000000, 0.0000000000000000000, 1.000000000000000000 ) ) ;
#150 = ORIENTED_EDGE ( 'NONE', *, *, #329, .F. ) ;
#151 = CARTESIAN_POINT ( 'NONE',  ( -23.69833102642519800, 0.0000000000000000000, 0.0000000000000000000 ) ) ;
#152 = AXIS2_PLACEMENT_3D ( 'NONE', #291, #265, #21 ) ;
#153 = DIRECTION ( 'NONE',  ( 0.0000000000000000000, 0.0000000000000000000, 1.000000000000000000 ) ) ;
#154 = ADVANCED_FACE ( 'NONE', ( #289 ), #6, .T. ) ;
#155 = FACE_OUTER_BOUND ( 'NONE', #36, .T. ) ;
#156 = EDGE_CURVE ( 'NONE', #10, #103, #82, .T. ) ;
#157 = LINE ( 'NONE', #29, #8 ) ;
#158 = ORIENTED_EDGE ( 'NONE', *, *, #156, .F. ) ;
#159 = AXIS2_PLACEMENT_3D ( 'NONE', #51, #299, #144 ) ;
#160 =( GEOMETRIC_REPRESENTATION_CONTEXT ( 3 ) GLOBAL_UNCERTAINTY_ASSIGNED_CONTEXT ( ( #226 ) ) GLOBAL_UNIT_ASSIGNED_CONTEXT ( ( #111, #269, #87 ) ) REPRESENTATION_CONTEXT ( 'NONE', 'WORKASPACE' ) );
#161 = SPHERICAL_SURFACE ( 'NONE', #273, 23.62100000000005900 ) ;
#162 = DIRECTION ( 'NONE',  ( -1.000000000000000000, -0.0000000000000000000, -0.0000000000000000000 ) ) ;
#163 = DIRECTION ( 'NONE',  ( 0.0000000000000000000, -1.224646799147353000E-016, 1.000000000000000000 ) ) ;
#164 = ORIENTED_EDGE ( 'NONE', *, *, #104, .T. ) ;
#165 =( GEOMETRIC_REPRESENTATION_CONTEXT ( 3 ) GLOBAL_UNCERTAINTY_ASSIGNED_CONTEXT ( ( #127 ) ) GLOBAL_UNIT_ASSIGNED_CONTEXT ( ( #145, #147, #35 ) ) REPRESENTATION_CONTEXT ( 'NONE', 'WORKASPACE' ) );
#166 = APPLICATION_PROTOCOL_DEFINITION ( 'draft international standard', 'automotive_design', 1998, #320 ) ;
#167 = APPLICATION_CONTEXT ( 'automotive_design' ) ;
#168 = DIRECTION ( 'NONE',  ( -1.000000000000000000, -0.0000000000000000000, -0.0000000000000000000 ) ) ;
#169 = DIRECTION ( 'NONE',  ( 0.0000000000000000000, -1.224646799147353200E-016, 1.000000000000000000 ) ) ;
#170 =( NAMED_UNIT ( * ) SI_UNIT ( $, .STERADIAN. ) SOLID_ANGLE_UNIT ( ) );
#171 = CIRCLE ( 'NONE', #79, 64.69899999999999800 ) ;
#172 = SURFACE_STYLE_USAGE ( .BOTH. , #7 ) ;
#173 = CIRCLE ( 'NONE', #262, 12.50000000000000000 ) ;
#174 = CARTESIAN_POINT ( 'NONE',  ( 14.87966897357473400, 0.0000000000000000000, 1.355252715606880500E-017 ) ) ;
#175 = ORIENTED_EDGE ( 'NONE', *, *, #120, .T. ) ;
#176 = EDGE_LOOP ( 'NONE', ( #239, #119, #264, #316 ) ) ;
#177 = DIRECTION ( 'NONE',  ( 0.0000000000000000000, 0.0000000000000000000, 1.000000000000000000 ) ) ;
#178 = DIRECTION ( 'NONE',  ( 0.0000000000000000000, 0.0000000000000000000, 1.000000000000000000 ) ) ;
#179 = DIRECTION ( 'NONE',  ( -1.000000000000000000, -0.0000000000000000000, -0.0000000000000000000 ) ) ;
#180 = ADVANCED_FACE ( 'NONE', ( #155 ), #146, .T. ) ;
#181 = FACE_OUTER_BOUND ( 'NONE', #69, .T. ) ;
#182 = VERTEX_POINT ( 'NONE', #67 ) ;
#183 = AXIS2_PLACEMENT_3D ( 'NONE', #304, #14, #153 ) ;
#184 = AXIS2_PLACEMENT_3D ( 'NONE', #3, #213, #325 ) ;
#185 = MANIFOLD_SOLID_BREP ( 'Ðý×ª1', #126 ) ;
#186 = FACE_OUTER_BOUND ( 'NONE', #286, .T. ) ;
#187 = ORIENTED_EDGE ( 'NONE', *, *, #135, .T. ) ;
#188 = CARTESIAN_POINT ( 'NONE',  ( -23.69833102642519800, 0.0000000000000000000, 0.0000000000000000000 ) ) ;
#189 = VERTEX_POINT ( 'NONE', #84 ) ;
#190 = DIRECTION ( 'NONE',  ( 1.000000000000000000, 0.0000000000000000000, 0.0000000000000000000 ) ) ;
#191 = APPLICATION_PROTOCOL_DEFINITION ( 'draft international standard', 'automotive_design', 1998, #167 ) ;
#192 = CARTESIAN_POINT ( 'NONE',  ( 14.87966897357473400, 0.0000000000000000000, 1.355252715606880500E-017 ) ) ;
#193 = CARTESIAN_POINT ( 'NONE',  ( 14.87966897357473400, 0.0000000000000000000, 1.355252715606880500E-017 ) ) ;
#194 =( LENGTH_UNIT ( ) NAMED_UNIT ( * ) SI_UNIT ( .MILLI., .METRE. ) );
#195 = EDGE_CURVE ( 'NONE', #95, #204, #283, .T. ) ;
#196 = CARTESIAN_POINT ( 'NONE',  ( 34.92216485108465900, 0.0000000000000000000, 12.50000000000000000 ) ) ;
#197 = CARTESIAN_POINT ( 'NONE',  ( -0.5519199926577972300, 0.0000000000000000000, 0.0000000000000000000 ) ) ;
#198 = ORIENTED_EDGE ( 'NONE', *, *, #206, .F. ) ;
#199 = AXIS2_PLACEMENT_3D ( 'NONE', #9, #281, #332 ) ;
#200 = CARTESIAN_POINT ( 'NONE',  ( -23.69833102642519800, 0.0000000000000000000, 0.0000000000000000000 ) ) ;
#201 = DIRECTION ( 'NONE',  ( 0.0000000000000000000, 0.0000000000000000000, -1.000000000000000000 ) ) ;
#202 = CARTESIAN_POINT ( 'NONE',  ( 34.92216485108465200, 0.0000000000000000000, 12.50000000000002100 ) ) ;
#203 = ADVANCED_FACE ( 'NONE', ( #208 ), #44, .T. ) ;
#204 = VERTEX_POINT ( 'NONE', #202 ) ;
#205 = CIRCLE ( 'NONE', #139, 32.88400000000000700 ) ;
#206 = EDGE_CURVE ( 'NONE', #312, #95, #252, .T. ) ;
#207 = AXIS2_PLACEMENT_3D ( 'NONE', #216, #25, #190 ) ;
#208 = FACE_OUTER_BOUND ( 'NONE', #345, .T. ) ;
#209 = VERTEX_POINT ( 'NONE', #230 ) ;
#210 = DIRECTION ( 'NONE',  ( 0.0000000000000000000, 0.0000000000000000000, -1.000000000000000000 ) ) ;
#211 = DIRECTION ( 'NONE',  ( 0.0000000000000000000, 1.000000000000000000, 0.0000000000000000000 ) ) ;
#212 = SHAPE_DEFINITION_REPRESENTATION ( #80, #284 ) ;
#213 = DIRECTION ( 'NONE',  ( 0.0000000000000000000, 1.000000000000000000, 0.0000000000000000000 ) ) ;
#214 = AXIS2_PLACEMENT_3D ( 'NONE', #124, #99, #178 ) ;
#215 = EDGE_LOOP ( 'NONE', ( #338, #164, #187 ) ) ;
#216 = CARTESIAN_POINT ( 'NONE',  ( 0.0000000000000000000, 0.0000000000000000000, 0.0000000000000000000 ) ) ;
#217 =( NAMED_UNIT ( * ) SI_UNIT ( $, .STERADIAN. ) SOLID_ANGLE_UNIT ( ) );
#218 = AXIS2_PLACEMENT_3D ( 'NONE', #342, #162, #313 ) ;
#219 = DIRECTION ( 'NONE',  ( 0.0000000000000000000, 0.0000000000000000000, 1.000000000000000000 ) ) ;
#220 = SPHERICAL_SURFACE ( 'NONE', #237, 23.62100000000005900 ) ;
#221 = FILL_AREA_STYLE_COLOUR ( '', #64 ) ;
#222 = CARTESIAN_POINT ( 'NONE',  ( -0.5519199926577972300, 1.530808498934193500E-015, -12.50000000000001600 ) ) ;
#223 = SURFACE_SIDE_STYLE ('',( #314 ) ) ;
#224 = FACE_OUTER_BOUND ( 'NONE', #215, .T. ) ;
#225 = DIRECTION ( 'NONE',  ( 0.0000000000000000000, 1.000000000000000000, 0.0000000000000000000 ) ) ;
#226 = UNCERTAINTY_MEASURE_WITH_UNIT (LENGTH_MEASURE( 1.000000000000000100E-005 ), #111, 'distance_accuracy_value', 'NONE');
#227 = FILL_AREA_STYLE_COLOUR ( '', #76 ) ;
#228 = SPHERICAL_SURFACE ( 'NONE', #73, 23.62100000000005600 ) ;
#229 = ORIENTED_EDGE ( 'NONE', *, *, #306, .F. ) ;
#230 = CARTESIAN_POINT ( 'NONE',  ( 39.78167055675058400, 1.530808498934193300E-015, -12.50000000000001200 ) ) ;
#231 = ADVANCED_FACE ( 'NONE', ( #224 ), #315, .T. ) ;
#232 = PRODUCT_DEFINITION ( 'Î´Öª', '', #245, #271 ) ;
#233 = CIRCLE ( 'NONE', #288, 32.88400000000000700 ) ;
#234 = ORIENTED_EDGE ( 'NONE', *, *, #38, .T. ) ;
#235 = AXIS2_PLACEMENT_3D ( 'NONE', #250, #39, #34 ) ;
#236 = CARTESIAN_POINT ( 'NONE',  ( 63.58466897357474300, 0.0000000000000000000, -6.496984252233883000E-017 ) ) ;
#237 = AXIS2_PLACEMENT_3D ( 'NONE', #192, #112, #60 ) ;
#238 = ORIENTED_EDGE ( 'NONE', *, *, #143, .T. ) ;
#239 = ORIENTED_EDGE ( 'NONE', *, *, #156, .T. ) ;
#240 = DIRECTION ( 'NONE',  ( 0.0000000000000000000, -1.000000000000000000, 0.0000000000000000000 ) ) ;
#241 = EDGE_CURVE ( 'NONE', #56, #103, #15, .T. ) ;
#242 = FACE_OUTER_BOUND ( 'NONE', #70, .T. ) ;
#243 = DIRECTION ( 'NONE',  ( 0.0000000000000000000, 0.0000000000000000000, 1.000000000000000000 ) ) ;
#244 = CARTESIAN_POINT ( 'NONE',  ( 33.16908980762755700, 0.0000000000000000000, 0.0000000000000000000 ) ) ;
#245 = PRODUCT_DEFINITION_FORMATION_WITH_SPECIFIED_SOURCE ( 'ÈÎºÎ', '', #61, .NOT_KNOWN. ) ;
#246 = DIRECTION ( 'NONE',  ( -0.0000000000000000000, 1.000000000000000000, 1.224646799147353200E-016 ) ) ;
#247 = DIRECTION ( 'NONE',  ( 0.0000000000000000000, 0.0000000000000000000, -1.000000000000000000 ) ) ;
#248 = ORIENTED_EDGE ( 'NONE', *, *, #55, .F. ) ;
#249 = CARTESIAN_POINT ( 'NONE',  ( 34.92216485108465900, 0.0000000000000000000, 0.0000000000000000000 ) ) ;
#250 = CARTESIAN_POINT ( 'NONE',  ( 34.92216485108465900, 0.0000000000000000000, 0.0000000000000000000 ) ) ;
#251 = PRESENTATION_STYLE_ASSIGNMENT (( #31 ) ) ;
#252 = CIRCLE ( 'NONE', #292, 64.69899999999999800 ) ;
#253 = EDGE_LOOP ( 'NONE', ( #131, #238, #115, #48 ) ) ;
#254 = AXIS2_PLACEMENT_3D ( 'NONE', #200, #122, #177 ) ;
#255 = STYLED_ITEM ( 'NONE', ( #276 ), #185 ) ;
#256 = FACE_OUTER_BOUND ( 'NONE', #253, .T. ) ;
#257 = ORIENTED_EDGE ( 'NONE', *, *, #306, .T. ) ;
#258 = ORIENTED_EDGE ( 'NONE', *, *, #143, .F. ) ;
#259 = ORIENTED_EDGE ( 'NONE', *, *, #50, .T. ) ;
#260 = PRESENTATION_STYLE_ASSIGNMENT (( #296 ) ) ;
#261 = PRODUCT_RELATED_PRODUCT_CATEGORY ( 'part', '', ( #61 ) ) ;
#262 = AXIS2_PLACEMENT_3D ( 'NONE', #244, #63, #219 ) ;
#263 = DIRECTION ( 'NONE',  ( -1.000000000000000000, -0.0000000000000000000, -0.0000000000000000000 ) ) ;
#264 = ORIENTED_EDGE ( 'NONE', *, *, #50, .F. ) ;
#265 = DIRECTION ( 'NONE',  ( -1.000000000000000000, -0.0000000000000000000, -0.0000000000000000000 ) ) ;
#266 = CARTESIAN_POINT ( 'NONE',  ( 14.87966897357473400, 0.0000000000000000000, 1.355252715606880500E-017 ) ) ;
#267 = CARTESIAN_POINT ( 'NONE',  ( -9.702612178336682500, 0.0000000000000000000, 0.0000000000000000000 ) ) ;
#268 = STYLED_ITEM ( 'NONE', ( #251 ), #307 ) ;
#269 =( NAMED_UNIT ( * ) PLANE_ANGLE_UNIT ( ) SI_UNIT ( $, .RADIAN. ) );
#270 = CARTESIAN_POINT ( 'NONE',  ( 34.92216485108465200, 0.0000000000000000000, 0.0000000000000000000 ) ) ;
#271 = PRODUCT_DEFINITION_CONTEXT ( 'detailed design', #320, 'design' ) ;
#272 =( LENGTH_UNIT ( ) NAMED_UNIT ( * ) SI_UNIT ( .MILLI., .METRE. ) );
#273 = AXIS2_PLACEMENT_3D ( 'NONE', #266, #211, #318 ) ;
#274 = DIRECTION ( 'NONE',  ( -1.000000000000000000, -0.0000000000000000000, -0.0000000000000000000 ) ) ;
#275 = CARTESIAN_POINT ( 'NONE',  ( 14.87966897357473400, 0.0000000000000000000, 1.355252715606880500E-017 ) ) ;
#276 = PRESENTATION_STYLE_ASSIGNMENT (( #172 ) ) ;
#277 = MECHANICAL_DESIGN_GEOMETRIC_PRESENTATION_REPRESENTATION (  '', ( #255 ), #165 ) ;
#278 = SPHERICAL_SURFACE ( 'NONE', #159, 32.88400000000000700 ) ;
#279 = VECTOR ( 'NONE', #30, 1000.000000000000000 ) ;
#280 = CARTESIAN_POINT ( 'NONE',  ( 33.16908980762755700, 0.0000000000000000000, 12.50000000000000400 ) ) ;
#281 = DIRECTION ( 'NONE',  ( -0.0000000000000000000, 1.000000000000000000, 1.224646799147353200E-016 ) ) ;
#282 = ADVANCED_FACE ( 'NONE', ( #181 ), #107, .T. ) ;
#283 = LINE ( 'NONE', #333, #118 ) ;
#284 = ADVANCED_BREP_SHAPE_REPRESENTATION ( '145039', ( #185, #307, #207 ), #49 ) ;
#285 = EDGE_CURVE ( 'NONE', #103, #10, #52, .T. ) ;
#286 = EDGE_LOOP ( 'NONE', ( #321, #98, #158 ) ) ;
#287 = AXIS2_PLACEMENT_3D ( 'NONE', #275, #92, #247 ) ;
#288 = AXIS2_PLACEMENT_3D ( 'NONE', #236, #53, #210 ) ;
#289 = FACE_OUTER_BOUND ( 'NONE', #310, .T. ) ;
#290 = CARTESIAN_POINT ( 'NONE',  ( -9.702612178336682500, 0.0000000000000000000, 0.0000000000000000000 ) ) ;
#291 = CARTESIAN_POINT ( 'NONE',  ( -0.5519199926577972300, 0.0000000000000000000, 0.0000000000000000000 ) ) ;
#292 = AXIS2_PLACEMENT_3D ( 'NONE', #151, #12, #201 ) ;
#293 = DIRECTION ( 'NONE',  ( 0.0000000000000000000, 0.0000000000000000000, 1.000000000000000000 ) ) ;
#294 = VERTEX_POINT ( 'NONE', #280 ) ;
#295 = DIRECTION ( 'NONE',  ( -1.000000000000000000, -0.0000000000000000000, -0.0000000000000000000 ) ) ;
#296 = SURFACE_STYLE_USAGE ( .BOTH. , #138 ) ;
#297 = CARTESIAN_POINT ( 'NONE',  ( 38.50066897357479000, 0.0000000000000000000, 1.459921629289053700E-015 ) ) ;
#298 = DIRECTION ( 'NONE',  ( 0.0000000000000000000, 0.0000000000000000000, 1.000000000000000000 ) ) ;
#299 = DIRECTION ( 'NONE',  ( 0.0000000000000000000, 1.000000000000000000, 0.0000000000000000000 ) ) ;
#300 = CYLINDRICAL_SURFACE ( 'NONE', #97, 12.50000000000000000 ) ;
#301 = FILL_AREA_STYLE_COLOUR ( '', #128 ) ;
#302 = ORIENTED_EDGE ( 'NONE', *, *, #120, .F. ) ;
#303 = AXIS2_PLACEMENT_3D ( 'NONE', #197, #74, #149 ) ;
#304 = CARTESIAN_POINT ( 'NONE',  ( 14.87966897357473400, 0.0000000000000000000, 1.355252715606880500E-017 ) ) ;
#305 = ADVANCED_FACE ( 'NONE', ( #256 ), #43, .T. ) ;
#306 = EDGE_CURVE ( 'NONE', #182, #204, #117, .T. ) ;
#307 = MANIFOLD_SOLID_BREP ( 'Ðý×ª3', #46 ) ;
#308 = ORIENTED_EDGE ( 'NONE', *, *, #135, .F. ) ;
#309 = EDGE_CURVE ( 'NONE', #103, #24, #96, .T. ) ;
#310 = EDGE_LOOP ( 'NONE', ( #121, #234, #33, #16 ) ) ;
#311 = ORIENTED_EDGE ( 'NONE', *, *, #241, .F. ) ;
#312 = VERTEX_POINT ( 'NONE', #114 ) ;
#313 = DIRECTION ( 'NONE',  ( 0.0000000000000000000, 0.0000000000000000000, 1.000000000000000000 ) ) ;
#314 = SURFACE_STYLE_FILL_AREA ( #66 ) ;
#315 = SPHERICAL_SURFACE ( 'NONE', #214, 32.88400000000000700 ) ;
#316 = ORIENTED_EDGE ( 'NONE', *, *, #344, .F. ) ;
#317 = ORIENTED_EDGE ( 'NONE', *, *, #309, .F. ) ;
#318 = DIRECTION ( 'NONE',  ( 0.0000000000000000000, 0.0000000000000000000, 1.000000000000000000 ) ) ;
#319 = CARTESIAN_POINT ( 'NONE',  ( 33.16908980762755700, 0.0000000000000000000, 0.0000000000000000000 ) ) ;
#320 = APPLICATION_CONTEXT ( 'automotive_design' ) ;
#321 = ORIENTED_EDGE ( 'NONE', *, *, #105, .F. ) ;
#322 = PRESENTATION_LAYER_ASSIGNMENT (  '', '', ( #268 ) ) ;
#323 = FILL_AREA_STYLE ('',( #221 ) ) ;
#324 = DIRECTION ( 'NONE',  ( 0.0000000000000000000, 0.0000000000000000000, 1.000000000000000000 ) ) ;
#325 = DIRECTION ( 'NONE',  ( 0.0000000000000000000, 0.0000000000000000000, 1.000000000000000000 ) ) ;
#326 = EDGE_LOOP ( 'NONE', ( #229, #129, #328 ) ) ;
#327 = CIRCLE ( 'NONE', #27, 23.62100000000005900 ) ;
#328 = ORIENTED_EDGE ( 'NONE', *, *, #72, .T. ) ;
#329 = EDGE_CURVE ( 'NONE', #182, #83, #327, .T. ) ;
#330 = DIRECTION ( 'NONE',  ( -1.000000000000000000, -0.0000000000000000000, -0.0000000000000000000 ) ) ;
#331 = ORIENTED_EDGE ( 'NONE', *, *, #105, .T. ) ;
#332 = DIRECTION ( 'NONE',  ( 0.0000000000000000000, -1.224646799147353200E-016, 1.000000000000000000 ) ) ;
#333 = CARTESIAN_POINT ( 'NONE',  ( -0.5519199926577972300, 0.0000000000000000000, 12.50000000000001600 ) ) ;
#334 = ADVANCED_FACE ( 'NONE', ( #186 ), #228, .T. ) ;
#335 = SURFACE_STYLE_FILL_AREA ( #323 ) ;
#336 = AXIS2_PLACEMENT_3D ( 'NONE', #85, #240, #54 ) ;
#337 = EDGE_LOOP ( 'NONE', ( #259, #19, #308 ) ) ;
#338 = ORIENTED_EDGE ( 'NONE', *, *, #17, .F. ) ;
#339 = MECHANICAL_DESIGN_GEOMETRIC_PRESENTATION_REPRESENTATION (  '', ( #268 ), #11 ) ;
#340 = SURFACE_STYLE_FILL_AREA ( #116 ) ;
#341 = UNCERTAINTY_MEASURE_WITH_UNIT (LENGTH_MEASURE( 1.000000000000000100E-005 ), #272, 'distance_accuracy_value', 'NONE');
#342 = CARTESIAN_POINT ( 'NONE',  ( 39.78167055675058400, 0.0000000000000000000, 0.0000000000000000000 ) ) ;
#343 = DIRECTION ( 'NONE',  ( -0.0000000000000000000, 1.000000000000000000, 1.224646799147353200E-016 ) ) ;
#344 = EDGE_CURVE ( 'NONE', #10, #294, #157, .T. ) ;
#345 = EDGE_LOOP ( 'NONE', ( #311, #331, #45 ) ) ;
#346 = FACE_OUTER_BOUND ( 'NONE', #23, .T. ) ;
#347 = DIRECTION ( 'NONE',  ( -1.000000000000000000, -0.0000000000000000000, -0.0000000000000000000 ) ) ;
ENDSEC;
END-ISO-10303-21;
