ISO-10303-21;
HEADER;
FILE_DESCRIPTION (( 'STEP AP214' ),
    '1' );
FILE_NAME ('145041.STEP',
    '2019-05-12T03:09:13',
    ( 'user' ),
    ( 'Î¢ÈíÖÐ¹ú' ),
    'SwSTEP 2.0',
    'SolidWorks 2016',
    '' );
FILE_SCHEMA (( 'AUTOMOTIVE_DESIGN' ));
ENDSEC;

DATA;
#1 = DIRECTION ( 'NONE',  ( 0.0000000000000000000, 0.0000000000000000000, 1.000000000000000000 ) ) ;
#2 = ORIENTED_EDGE ( 'NONE', *, *, #271, .T. ) ;
#3 = DIRECTION ( 'NONE',  ( -0.0000000000000000000, -1.000000000000000000, -0.0000000000000000000 ) ) ;
#4 =( GEOMETRIC_REPRESENTATION_CONTEXT ( 3 ) GLOBAL_UNCERTAINTY_ASSIGNED_CONTEXT ( ( #345 ) ) GLOBAL_UNIT_ASSIGNED_CONTEXT ( ( #75, #334, #142 ) ) REPRESENTATION_CONTEXT ( 'NONE', 'WORKASPACE' ) );
#5 =( LENGTH_UNIT ( ) NAMED_UNIT ( * ) SI_UNIT ( .MILLI., .METRE. ) );
#6 = FILL_AREA_STYLE ('',( #144 ) ) ;
#7 = CIRCLE ( 'NONE', #222, 12.50000000000000400 ) ;
#8 = ORIENTED_EDGE ( 'NONE', *, *, #318, .F. ) ;
#9 = LINE ( 'NONE', #312, #186 ) ;
#10 = ORIENTED_EDGE ( 'NONE', *, *, #43, .F. ) ;
#11 = CYLINDRICAL_SURFACE ( 'NONE', #255, 12.50000000000000400 ) ;
#12 = EDGE_CURVE ( 'NONE', #187, #328, #207, .T. ) ;
#13 = CARTESIAN_POINT ( 'NONE',  ( -57.59733102642526600, 0.0000000000000000000, 0.0000000000000000000 ) ) ;
#14 = VECTOR ( 'NONE', #319, 1000.000000000000000 ) ;
#15 = SURFACE_STYLE_USAGE ( .BOTH. , #245 ) ;
#16 = ORIENTED_EDGE ( 'NONE', *, *, #31, .F. ) ;
#17 = DIRECTION ( 'NONE',  ( 0.0000000000000000000, 0.0000000000000000000, -1.000000000000000000 ) ) ;
#18 = AXIS2_PLACEMENT_3D ( 'NONE', #13, #194, #106 ) ;
#19 = ADVANCED_FACE ( 'NONE', ( #188 ), #61, .T. ) ;
#20 = CIRCLE ( 'NONE', #57, 12.49999999999998900 ) ;
#21 = PRODUCT_CONTEXT ( 'NONE', #220, 'mechanical' ) ;
#22 = DIRECTION ( 'NONE',  ( -1.000000000000000000, -0.0000000000000000000, -0.0000000000000000000 ) ) ;
#23 = LINE ( 'NONE', #298, #14 ) ;
#24 = DIRECTION ( 'NONE',  ( 0.0000000000000000000, -1.224646799147353200E-016, 1.000000000000000000 ) ) ;
#25 = UNCERTAINTY_MEASURE_WITH_UNIT (LENGTH_MEASURE( 1.000000000000000100E-005 ), #279, 'distance_accuracy_value', 'NONE');
#26 = VECTOR ( 'NONE', #54, 1000.000000000000000 ) ;
#27 = AXIS2_PLACEMENT_3D ( 'NONE', #42, #37, #266 ) ;
#28 = CARTESIAN_POINT ( 'NONE',  ( 53.75727784092247700, 0.0000000000000000000, 0.0000000000000000000 ) ) ;
#29 = SPHERICAL_SURFACE ( 'NONE', #88, 112.0540000000000000 ) ;
#30 = FACE_OUTER_BOUND ( 'NONE', #205, .T. ) ;
#31 = EDGE_CURVE ( 'NONE', #73, #261, #337, .T. ) ;
#32 = ORIENTED_EDGE ( 'NONE', *, *, #12, .F. ) ;
#33 = PRODUCT_RELATED_PRODUCT_CATEGORY ( 'part', '', ( #122 ) ) ;
#34 = AXIS2_PLACEMENT_3D ( 'NONE', #195, #310, #178 ) ;
#35 = CARTESIAN_POINT ( 'NONE',  ( 53.75727784092247700, 0.0000000000000000000, 12.49999999999998900 ) ) ;
#36 = AXIS2_PLACEMENT_3D ( 'NONE', #232, #140, #65 ) ;
#37 = DIRECTION ( 'NONE',  ( 0.0000000000000000000, 1.000000000000000000, 0.0000000000000000000 ) ) ;
#38 = VECTOR ( 'NONE', #156, 1000.000000000000000 ) ;
#39 =( NAMED_UNIT ( * ) SI_UNIT ( $, .STERADIAN. ) SOLID_ANGLE_UNIT ( ) );
#40 = CARTESIAN_POINT ( 'NONE',  ( 50.31666840919287200, 0.0000000000000000000, 12.50000000000000200 ) ) ;
#41 = DIRECTION ( 'NONE',  ( 0.0000000000000000000, 1.000000000000000000, 0.0000000000000000000 ) ) ;
#42 = CARTESIAN_POINT ( 'NONE',  ( 14.87966897357473400, 0.0000000000000000000, 1.355252715606880500E-017 ) ) ;
#43 = EDGE_CURVE ( 'NONE', #72, #64, #119, .T. ) ;
#44 = CARTESIAN_POINT ( 'NONE',  ( 14.87966897357473400, 0.0000000000000000000, 1.355252715606880500E-017 ) ) ;
#45 = CIRCLE ( 'NONE', #136, 12.50000000000000400 ) ;
#46 = AXIS2_PLACEMENT_3D ( 'NONE', #153, #100, #68 ) ;
#47 = ORIENTED_EDGE ( 'NONE', *, *, #301, .F. ) ;
#48 = DIRECTION ( 'NONE',  ( 0.0000000000000000000, 0.0000000000000000000, 1.000000000000000000 ) ) ;
#49 = CARTESIAN_POINT ( 'NONE',  ( 50.31666840919287200, 0.0000000000000000000, 0.0000000000000000000 ) ) ;
#50 = EDGE_CURVE ( 'NONE', #173, #134, #74, .T. ) ;
#51 = DIRECTION ( 'NONE',  ( -1.000000000000000000, -0.0000000000000000000, -0.0000000000000000000 ) ) ;
#52 = DIRECTION ( 'NONE',  ( 0.0000000000000000000, 0.0000000000000000000, 1.000000000000000000 ) ) ;
#53 = CARTESIAN_POINT ( 'NONE',  ( -0.5519199926577972300, 0.0000000000000000000, 12.49999999999999600 ) ) ;
#54 = DIRECTION ( 'NONE',  ( -1.000000000000000000, -0.0000000000000000000, -0.0000000000000000000 ) ) ;
#55 = VERTEX_POINT ( 'NONE', #308 ) ;
#56 = EDGE_LOOP ( 'NONE', ( #152, #272, #273 ) ) ;
#57 = AXIS2_PLACEMENT_3D ( 'NONE', #28, #285, #149 ) ;
#58 = CARTESIAN_POINT ( 'NONE',  ( 97.64166897357473800, 0.0000000000000000000, 2.012829774601550400E-015 ) ) ;
#59 = STYLED_ITEM ( 'NONE', ( #221 ), #321 ) ;
#60 = DIRECTION ( 'NONE',  ( -0.0000000000000000000, 1.000000000000000000, 1.224646799147353200E-016 ) ) ;
#61 = SPHERICAL_SURFACE ( 'NONE', #105, 50.88500000000000500 ) ;
#62 = AXIS2_PLACEMENT_3D ( 'NONE', #190, #241, #262 ) ;
#63 = CLOSED_SHELL ( 'NONE', ( #338, #96, #19, #199, #118, #306 ) ) ;
#64 = VERTEX_POINT ( 'NONE', #95 ) ;
#65 = DIRECTION ( 'NONE',  ( 0.0000000000000000000, 0.0000000000000000000, 1.000000000000000000 ) ) ;
#66 = AXIS2_PLACEMENT_3D ( 'NONE', #101, #347, #52 ) ;
#67 = DIRECTION ( 'NONE',  ( -1.000000000000000000, -0.0000000000000000000, -0.0000000000000000000 ) ) ;
#68 = DIRECTION ( 'NONE',  ( 0.0000000000000000000, 1.224646799147353200E-016, -1.000000000000000000 ) ) ;
#69 = DIRECTION ( 'NONE',  ( -1.000000000000000000, -0.0000000000000000000, -0.0000000000000000000 ) ) ;
#70 = EDGE_LOOP ( 'NONE', ( #182, #215, #157, #16 ) ) ;
#71 = CARTESIAN_POINT ( 'NONE',  ( 14.87966897357473400, 0.0000000000000000000, 1.355252715606880500E-017 ) ) ;
#72 = VERTEX_POINT ( 'NONE', #40 ) ;
#73 = VERTEX_POINT ( 'NONE', #256 ) ;
#74 = CIRCLE ( 'NONE', #175, 112.0540000000000000 ) ;
#75 =( LENGTH_UNIT ( ) NAMED_UNIT ( * ) SI_UNIT ( .MILLI., .METRE. ) );
#76 = AXIS2_PLACEMENT_3D ( 'NONE', #125, #179, #269 ) ;
#77 = PRESENTATION_LAYER_ASSIGNMENT (  '', '', ( #59 ) ) ;
#78 = CIRCLE ( 'NONE', #18, 112.0540000000000000 ) ;
#79 = DIRECTION ( 'NONE',  ( 0.0000000000000000000, 0.0000000000000000000, 1.000000000000000000 ) ) ;
#80 =( GEOMETRIC_REPRESENTATION_CONTEXT ( 3 ) GLOBAL_UNCERTAINTY_ASSIGNED_CONTEXT ( ( #141 ) ) GLOBAL_UNIT_ASSIGNED_CONTEXT ( ( #5, #249, #39 ) ) REPRESENTATION_CONTEXT ( 'NONE', 'WORKASPACE' ) );
#81 = CARTESIAN_POINT ( 'NONE',  ( 46.75666897357472600, 0.0000000000000000000, -1.102977844129103300E-015 ) ) ;
#82 = FACE_OUTER_BOUND ( 'NONE', #115, .T. ) ;
#83 = COLOUR_RGB ( '',1.000000000000000000, 1.000000000000000000, 1.000000000000000000 ) ;
#84 = CIRCLE ( 'NONE', #280, 12.50000000000000200 ) ;
#85 = AXIS2_PLACEMENT_3D ( 'NONE', #233, #281, #250 ) ;
#86 = ADVANCED_BREP_SHAPE_REPRESENTATION ( '145041', ( #196, #321, #236 ), #80 ) ;
#87 = ORIENTED_EDGE ( 'NONE', *, *, #107, .F. ) ;
#88 = AXIS2_PLACEMENT_3D ( 'NONE', #234, #253, #263 ) ;
#89 = MECHANICAL_DESIGN_GEOMETRIC_PRESENTATION_REPRESENTATION (  '', ( #59 ), #109 ) ;
#90 = ORIENTED_EDGE ( 'NONE', *, *, #289, .T. ) ;
#91 = DIRECTION ( 'NONE',  ( 0.0000000000000000000, 0.0000000000000000000, 1.000000000000000000 ) ) ;
#92 = EDGE_CURVE ( 'NONE', #134, #73, #9, .T. ) ;
#93 = CARTESIAN_POINT ( 'NONE',  ( 54.45666897357473600, 0.0000000000000000000, 6.861328621582875500E-015 ) ) ;
#94 = CARTESIAN_POINT ( 'NONE',  ( 48.31588236048563100, 0.0000000000000000000, 0.0000000000000000000 ) ) ;
#95 = CARTESIAN_POINT ( 'NONE',  ( 50.31666840919287200, 1.530808498934191700E-015, -12.50000000000000200 ) ) ;
#96 = ADVANCED_FACE ( 'NONE', ( #325 ), #97, .T. ) ;
#97 = CYLINDRICAL_SURFACE ( 'NONE', #235, 12.50000000000000400 ) ;
#98 = DIRECTION ( 'NONE',  ( -1.000000000000000000, -0.0000000000000000000, -0.0000000000000000000 ) ) ;
#99 = FACE_OUTER_BOUND ( 'NONE', #314, .T. ) ;
#100 = DIRECTION ( 'NONE',  ( 0.0000000000000000000, -1.000000000000000000, -1.224646799147353200E-016 ) ) ;
#101 = CARTESIAN_POINT ( 'NONE',  ( 48.31588236048563100, 0.0000000000000000000, 0.0000000000000000000 ) ) ;
#102 = CIRCLE ( 'NONE', #202, 50.88500000000000500 ) ;
#103 = APPLICATION_PROTOCOL_DEFINITION ( 'draft international standard', 'automotive_design', 1998, #220 ) ;
#104 = EDGE_LOOP ( 'NONE', ( #278, #90, #171, #239 ) ) ;
#105 = AXIS2_PLACEMENT_3D ( 'NONE', #288, #3, #313 ) ;
#106 = DIRECTION ( 'NONE',  ( 0.0000000000000000000, 0.0000000000000000000, -1.000000000000000000 ) ) ;
#107 = EDGE_CURVE ( 'NONE', #295, #261, #176, .T. ) ;
#108 = DIRECTION ( 'NONE',  ( -0.0000000000000000000, 1.000000000000000000, 1.224646799147353200E-016 ) ) ;
#109 =( GEOMETRIC_REPRESENTATION_CONTEXT ( 3 ) GLOBAL_UNCERTAINTY_ASSIGNED_CONTEXT ( ( #303 ) ) GLOBAL_UNIT_ASSIGNED_CONTEXT ( ( #114, #277, #276 ) ) REPRESENTATION_CONTEXT ( 'NONE', 'WORKASPACE' ) );
#110 = SPHERICAL_SURFACE ( 'NONE', #244, 37.57699999999999800 ) ;
#111 = DIRECTION ( 'NONE',  ( -1.000000000000000000, -0.0000000000000000000, -0.0000000000000000000 ) ) ;
#112 = ORIENTED_EDGE ( 'NONE', *, *, #327, .F. ) ;
#113 = STYLED_ITEM ( 'NONE', ( #154 ), #86 ) ;
#114 =( LENGTH_UNIT ( ) NAMED_UNIT ( * ) SI_UNIT ( .MILLI., .METRE. ) );
#115 = EDGE_LOOP ( 'NONE', ( #166, #225, #340 ) ) ;
#116 = CIRCLE ( 'NONE', #46, 50.88500000000000500 ) ;
#117 = AXIS2_PLACEMENT_3D ( 'NONE', #49, #22, #291 ) ;
#118 = ADVANCED_FACE ( 'NONE', ( #217 ), #11, .T. ) ;
#119 = CIRCLE ( 'NONE', #117, 12.50000000000000200 ) ;
#120 = ADVANCED_FACE ( 'NONE', ( #82 ), #132, .T. ) ;
#121 = AXIS2_PLACEMENT_3D ( 'NONE', #71, #60, #123 ) ;
#122 = PRODUCT ( '145041', '145041', '', ( #21 ) ) ;
#123 = DIRECTION ( 'NONE',  ( 0.0000000000000000000, -1.224646799147353200E-016, 1.000000000000000000 ) ) ;
#124 = DIRECTION ( 'NONE',  ( 0.0000000000000000000, 1.000000000000000000, 0.0000000000000000000 ) ) ;
#125 = CARTESIAN_POINT ( 'NONE',  ( 53.75727784092247700, 0.0000000000000000000, 0.0000000000000000000 ) ) ;
#126 = ORIENTED_EDGE ( 'NONE', *, *, #301, .T. ) ;
#127 = ORIENTED_EDGE ( 'NONE', *, *, #289, .F. ) ;
#128 = ORIENTED_EDGE ( 'NONE', *, *, #247, .T. ) ;
#129 = PRESENTATION_LAYER_ASSIGNMENT (  '', '', ( #113 ) ) ;
#130 = CARTESIAN_POINT ( 'NONE',  ( 50.31666840919287200, 0.0000000000000000000, 12.49999999999999600 ) ) ;
#131 = DIRECTION ( 'NONE',  ( 0.0000000000000000000, -1.000000000000000000, 0.0000000000000000000 ) ) ;
#132 = SPHERICAL_SURFACE ( 'NONE', #214, 112.0540000000000000 ) ;
#133 = EDGE_LOOP ( 'NONE', ( #254, #209, #218 ) ) ;
#134 = VERTEX_POINT ( 'NONE', #333 ) ;
#135 = CARTESIAN_POINT ( 'NONE',  ( 14.87966897357473400, 0.0000000000000000000, 1.355252715606880500E-017 ) ) ;
#136 = AXIS2_PLACEMENT_3D ( 'NONE', #94, #111, #185 ) ;
#137 = ORIENTED_EDGE ( 'NONE', *, *, #346, .F. ) ;
#138 = FACE_OUTER_BOUND ( 'NONE', #286, .T. ) ;
#139 = EDGE_CURVE ( 'NONE', #55, #261, #211, .T. ) ;
#140 = DIRECTION ( 'NONE',  ( 0.0000000000000000000, 1.000000000000000000, 0.0000000000000000000 ) ) ;
#141 = UNCERTAINTY_MEASURE_WITH_UNIT (LENGTH_MEASURE( 1.000000000000000100E-005 ), #5, 'distance_accuracy_value', 'NONE');
#142 =( NAMED_UNIT ( * ) SI_UNIT ( $, .STERADIAN. ) SOLID_ANGLE_UNIT ( ) );
#143 = DIRECTION ( 'NONE',  ( 0.0000000000000000000, 0.0000000000000000000, 1.000000000000000000 ) ) ;
#144 = FILL_AREA_STYLE_COLOUR ( '', #165 ) ;
#145 = SURFACE_STYLE_FILL_AREA ( #320 ) ;
#146 = ORIENTED_EDGE ( 'NONE', *, *, #287, .T. ) ;
#147 = ADVANCED_FACE ( 'NONE', ( #296 ), #238, .T. ) ;
#148 = FACE_OUTER_BOUND ( 'NONE', #243, .T. ) ;
#149 = DIRECTION ( 'NONE',  ( 0.0000000000000000000, 0.0000000000000000000, 1.000000000000000000 ) ) ;
#150 = CARTESIAN_POINT ( 'NONE',  ( 50.31666840919287200, 0.0000000000000000000, 0.0000000000000000000 ) ) ;
#151 = DIRECTION ( 'NONE',  ( -1.000000000000000000, -0.0000000000000000000, -0.0000000000000000000 ) ) ;
#152 = ORIENTED_EDGE ( 'NONE', *, *, #12, .T. ) ;
#153 = CARTESIAN_POINT ( 'NONE',  ( 97.64166897357473800, 0.0000000000000000000, 2.012829774601550400E-015 ) ) ;
#154 = PRESENTATION_STYLE_ASSIGNMENT (( #15 ) ) ;
#155 = CARTESIAN_POINT ( 'NONE',  ( 14.87966897357473400, 0.0000000000000000000, 1.355252715606880500E-017 ) ) ;
#156 = DIRECTION ( 'NONE',  ( -1.000000000000000000, -0.0000000000000000000, -0.0000000000000000000 ) ) ;
#157 = ORIENTED_EDGE ( 'NONE', *, *, #107, .T. ) ;
#158 = FACE_OUTER_BOUND ( 'NONE', #192, .T. ) ;
#159 = ORIENTED_EDGE ( 'NONE', *, *, #210, .T. ) ;
#160 = COLOUR_RGB ( '',1.000000000000000000, 1.000000000000000000, 1.000000000000000000 ) ;
#161 = MECHANICAL_DESIGN_GEOMETRIC_PRESENTATION_REPRESENTATION (  '', ( #113 ), #177 ) ;
#162 = PRODUCT_DEFINITION_SHAPE ( 'NONE', 'NONE',  #257 ) ;
#163 = DIRECTION ( 'NONE',  ( 0.0000000000000000000, -1.224646799147353200E-016, 1.000000000000000000 ) ) ;
#164 = CARTESIAN_POINT ( 'NONE',  ( 48.31588236048563100, -1.530808498934193100E-015, 12.50000000000001400 ) ) ;
#165 = COLOUR_RGB ( '',1.000000000000000000, 1.000000000000000000, 1.000000000000000000 ) ;
#166 = ORIENTED_EDGE ( 'NONE', *, *, #210, .F. ) ;
#167 = DIRECTION ( 'NONE',  ( 0.0000000000000000000, 0.0000000000000000000, 1.000000000000000000 ) ) ;
#168 = CLOSED_SHELL ( 'NONE', ( #120, #336, #229, #259, #147, #227 ) ) ;
#169 = CARTESIAN_POINT ( 'NONE',  ( -0.5519199926577972300, 0.0000000000000000000, 0.0000000000000000000 ) ) ;
#170 = FILL_AREA_STYLE ('',( #284 ) ) ;
#171 = ORIENTED_EDGE ( 'NONE', *, *, #332, .F. ) ;
#172 = DIRECTION ( 'NONE',  ( 0.0000000000000000000, 0.0000000000000000000, 1.000000000000000000 ) ) ;
#173 = VERTEX_POINT ( 'NONE', #93 ) ;
#174 = DIRECTION ( 'NONE',  ( -1.000000000000000000, -0.0000000000000000000, -0.0000000000000000000 ) ) ;
#175 = AXIS2_PLACEMENT_3D ( 'NONE', #341, #108, #24 ) ;
#176 = LINE ( 'NONE', #53, #26 ) ;
#177 =( GEOMETRIC_REPRESENTATION_CONTEXT ( 3 ) GLOBAL_UNCERTAINTY_ASSIGNED_CONTEXT ( ( #25 ) ) GLOBAL_UNIT_ASSIGNED_CONTEXT ( ( #279, #228, #265 ) ) REPRESENTATION_CONTEXT ( 'NONE', 'WORKASPACE' ) );
#178 = DIRECTION ( 'NONE',  ( 0.0000000000000000000, 0.0000000000000000000, -1.000000000000000000 ) ) ;
#179 = DIRECTION ( 'NONE',  ( -1.000000000000000000, -0.0000000000000000000, -0.0000000000000000000 ) ) ;
#180 = CIRCLE ( 'NONE', #264, 37.57699999999999800 ) ;
#181 = CARTESIAN_POINT ( 'NONE',  ( 50.31666840919287200, 0.0000000000000000000, 0.0000000000000000000 ) ) ;
#182 = ORIENTED_EDGE ( 'NONE', *, *, #92, .F. ) ;
#183 = CARTESIAN_POINT ( 'NONE',  ( 14.87966897357473400, 0.0000000000000000000, 1.355252715606880500E-017 ) ) ;
#184 = AXIS2_PLACEMENT_3D ( 'NONE', #155, #41, #208 ) ;
#185 = DIRECTION ( 'NONE',  ( 0.0000000000000000000, 0.0000000000000000000, 1.000000000000000000 ) ) ;
#186 = VECTOR ( 'NONE', #151, 1000.000000000000000 ) ;
#187 = VERTEX_POINT ( 'NONE', #198 ) ;
#188 = FACE_OUTER_BOUND ( 'NONE', #56, .T. ) ;
#189 = FILL_AREA_STYLE_COLOUR ( '', #160 ) ;
#190 = CARTESIAN_POINT ( 'NONE',  ( -0.5519199926577972300, 0.0000000000000000000, 0.0000000000000000000 ) ) ;
#191 = CIRCLE ( 'NONE', #76, 12.49999999999998900 ) ;
#192 = EDGE_LOOP ( 'NONE', ( #112, #300, #2 ) ) ;
#193 = SURFACE_STYLE_USAGE ( .BOTH. , #331 ) ;
#194 = DIRECTION ( 'NONE',  ( 0.0000000000000000000, -1.000000000000000000, 0.0000000000000000000 ) ) ;
#195 = CARTESIAN_POINT ( 'NONE',  ( 97.64166897357473800, 0.0000000000000000000, 2.012829774601550400E-015 ) ) ;
#196 = MANIFOLD_SOLID_BREP ( 'Ðý×ª1', #63 ) ;
#197 = AXIS2_PLACEMENT_3D ( 'NONE', #44, #226, #17 ) ;
#198 = CARTESIAN_POINT ( 'NONE',  ( 48.31588236048563100, 0.0000000000000000000, -12.50000000000001400 ) ) ;
#199 = ADVANCED_FACE ( 'NONE', ( #138 ), #219, .T. ) ;
#200 = CARTESIAN_POINT ( 'NONE',  ( 0.0000000000000000000, 0.0000000000000000000, 0.0000000000000000000 ) ) ;
#201 = APPLICATION_PROTOCOL_DEFINITION ( 'draft international standard', 'automotive_design', 1998, #309 ) ;
#202 = AXIS2_PLACEMENT_3D ( 'NONE', #58, #252, #172 ) ;
#203 = LINE ( 'NONE', #268, #38 ) ;
#204 = SURFACE_STYLE_USAGE ( .BOTH. , #317 ) ;
#205 = EDGE_LOOP ( 'NONE', ( #213, #329, #47 ) ) ;
#206 = DIRECTION ( 'NONE',  ( 0.0000000000000000000, 1.000000000000000000, 0.0000000000000000000 ) ) ;
#207 = CIRCLE ( 'NONE', #66, 12.50000000000000400 ) ;
#208 = DIRECTION ( 'NONE',  ( 0.0000000000000000000, 0.0000000000000000000, 1.000000000000000000 ) ) ;
#209 = ORIENTED_EDGE ( 'NONE', *, *, #327, .T. ) ;
#210 = EDGE_CURVE ( 'NONE', #173, #295, #78, .T. ) ;
#211 = CIRCLE ( 'NONE', #197, 37.57699999999999800 ) ;
#212 = EDGE_CURVE ( 'NONE', #134, #295, #20, .T. ) ;
#213 = ORIENTED_EDGE ( 'NONE', *, *, #287, .F. ) ;
#214 = AXIS2_PLACEMENT_3D ( 'NONE', #304, #206, #143 ) ;
#215 = ORIENTED_EDGE ( 'NONE', *, *, #212, .T. ) ;
#216 = CARTESIAN_POINT ( 'NONE',  ( 52.45666897357473600, 0.0000000000000000000, 2.314480165734073400E-015 ) ) ;
#217 = FACE_OUTER_BOUND ( 'NONE', #315, .T. ) ;
#218 = ORIENTED_EDGE ( 'NONE', *, *, #31, .T. ) ;
#219 = SPHERICAL_SURFACE ( 'NONE', #34, 50.88500000000000500 ) ;
#220 = APPLICATION_CONTEXT ( 'automotive_design' ) ;
#221 = PRESENTATION_STYLE_ASSIGNMENT (( #204 ) ) ;
#222 = AXIS2_PLACEMENT_3D ( 'NONE', #150, #67, #267 ) ;
#223 = ORIENTED_EDGE ( 'NONE', *, *, #92, .T. ) ;
#224 = CARTESIAN_POINT ( 'NONE',  ( -9.702612178336682500, 0.0000000000000000000, 0.0000000000000000000 ) ) ;
#225 = ORIENTED_EDGE ( 'NONE', *, *, #50, .T. ) ;
#226 = DIRECTION ( 'NONE',  ( 0.0000000000000000000, -1.000000000000000000, 0.0000000000000000000 ) ) ;
#227 = ADVANCED_FACE ( 'NONE', ( #99 ), #29, .T. ) ;
#228 =( NAMED_UNIT ( * ) PLANE_ANGLE_UNIT ( ) SI_UNIT ( $, .RADIAN. ) );
#229 = ADVANCED_FACE ( 'NONE', ( #242 ), #282, .F. ) ;
#230 = EDGE_CURVE ( 'NONE', #295, #134, #191, .T. ) ;
#231 = SPHERICAL_SURFACE ( 'NONE', #36, 37.57699999999999800 ) ;
#232 = CARTESIAN_POINT ( 'NONE',  ( 14.87966897357473400, 0.0000000000000000000, 1.355252715606880500E-017 ) ) ;
#233 = CARTESIAN_POINT ( 'NONE',  ( 50.31666840919287200, 0.0000000000000000000, 0.0000000000000000000 ) ) ;
#234 = CARTESIAN_POINT ( 'NONE',  ( -57.59733102642526600, 0.0000000000000000000, 0.0000000000000000000 ) ) ;
#235 = AXIS2_PLACEMENT_3D ( 'NONE', #224, #174, #167 ) ;
#236 = AXIS2_PLACEMENT_3D ( 'NONE', #200, #48, #335 ) ;
#237 = CARTESIAN_POINT ( 'NONE',  ( -9.702612178336682500, 0.0000000000000000000, 0.0000000000000000000 ) ) ;
#238 = CYLINDRICAL_SURFACE ( 'NONE', #305, 12.49999999999999600 ) ;
#239 = ORIENTED_EDGE ( 'NONE', *, *, #247, .F. ) ;
#240 = EDGE_CURVE ( 'NONE', #187, #270, #102, .T. ) ;
#241 = DIRECTION ( 'NONE',  ( -1.000000000000000000, -0.0000000000000000000, -0.0000000000000000000 ) ) ;
#242 = FACE_OUTER_BOUND ( 'NONE', #133, .T. ) ;
#243 = EDGE_LOOP ( 'NONE', ( #339, #223, #324, #87 ) ) ;
#244 = AXIS2_PLACEMENT_3D ( 'NONE', #293, #124, #79 ) ;
#245 = SURFACE_SIDE_STYLE ('',( #145 ) ) ;
#246 = SURFACE_STYLE_FILL_AREA ( #170 ) ;
#247 = EDGE_CURVE ( 'NONE', #72, #328, #203, .T. ) ;
#248 = EDGE_LOOP ( 'NONE', ( #8, #146, #10 ) ) ;
#249 =( NAMED_UNIT ( * ) PLANE_ANGLE_UNIT ( ) SI_UNIT ( $, .RADIAN. ) );
#250 = DIRECTION ( 'NONE',  ( 0.0000000000000000000, 0.0000000000000000000, 1.000000000000000000 ) ) ;
#251 = FACE_OUTER_BOUND ( 'NONE', #248, .T. ) ;
#252 = DIRECTION ( 'NONE',  ( 0.0000000000000000000, 1.000000000000000000, -0.0000000000000000000 ) ) ;
#253 = DIRECTION ( 'NONE',  ( 0.0000000000000000000, 1.000000000000000000, 0.0000000000000000000 ) ) ;
#254 = ORIENTED_EDGE ( 'NONE', *, *, #139, .F. ) ;
#255 = AXIS2_PLACEMENT_3D ( 'NONE', #237, #98, #1 ) ;
#256 = CARTESIAN_POINT ( 'NONE',  ( 50.31666840919287200, 1.530808498934191100E-015, -12.49999999999999600 ) ) ;
#257 = PRODUCT_DEFINITION ( 'Î´Öª', '', #275, #258 ) ;
#258 = PRODUCT_DEFINITION_CONTEXT ( 'detailed design', #309, 'design' ) ;
#259 = ADVANCED_FACE ( 'NONE', ( #158 ), #110, .F. ) ;
#260 = CIRCLE ( 'NONE', #297, 37.57699999999999800 ) ;
#261 = VERTEX_POINT ( 'NONE', #130 ) ;
#262 = DIRECTION ( 'NONE',  ( 0.0000000000000000000, 0.0000000000000000000, 1.000000000000000000 ) ) ;
#263 = DIRECTION ( 'NONE',  ( 0.0000000000000000000, 0.0000000000000000000, 1.000000000000000000 ) ) ;
#264 = AXIS2_PLACEMENT_3D ( 'NONE', #135, #323, #163 ) ;
#265 =( NAMED_UNIT ( * ) SI_UNIT ( $, .STERADIAN. ) SOLID_ANGLE_UNIT ( ) );
#266 = DIRECTION ( 'NONE',  ( 0.0000000000000000000, 0.0000000000000000000, 1.000000000000000000 ) ) ;
#267 = DIRECTION ( 'NONE',  ( 0.0000000000000000000, 0.0000000000000000000, 1.000000000000000000 ) ) ;
#268 = CARTESIAN_POINT ( 'NONE',  ( -9.702612178336682500, 0.0000000000000000000, 12.50000000000000400 ) ) ;
#269 = DIRECTION ( 'NONE',  ( 0.0000000000000000000, 0.0000000000000000000, 1.000000000000000000 ) ) ;
#270 = VERTEX_POINT ( 'NONE', #81 ) ;
#271 = EDGE_CURVE ( 'NONE', #261, #73, #7, .T. ) ;
#272 = ORIENTED_EDGE ( 'NONE', *, *, #346, .T. ) ;
#273 = ORIENTED_EDGE ( 'NONE', *, *, #240, .F. ) ;
#274 = PRESENTATION_LAYER_ASSIGNMENT (  '', '', ( #294 ) ) ;
#275 = PRODUCT_DEFINITION_FORMATION_WITH_SPECIFIED_SOURCE ( 'ÈÎºÎ', '', #122, .NOT_KNOWN. ) ;
#276 =( NAMED_UNIT ( * ) SI_UNIT ( $, .STERADIAN. ) SOLID_ANGLE_UNIT ( ) );
#277 =( NAMED_UNIT ( * ) PLANE_ANGLE_UNIT ( ) SI_UNIT ( $, .RADIAN. ) );
#278 = ORIENTED_EDGE ( 'NONE', *, *, #43, .T. ) ;
#279 =( LENGTH_UNIT ( ) NAMED_UNIT ( * ) SI_UNIT ( .MILLI., .METRE. ) );
#280 = AXIS2_PLACEMENT_3D ( 'NONE', #181, #51, #316 ) ;
#281 = DIRECTION ( 'NONE',  ( -1.000000000000000000, -0.0000000000000000000, -0.0000000000000000000 ) ) ;
#282 = SPHERICAL_SURFACE ( 'NONE', #184, 37.57699999999999800 ) ;
#283 = ORIENTED_EDGE ( 'NONE', *, *, #240, .T. ) ;
#284 = FILL_AREA_STYLE_COLOUR ( '', #83 ) ;
#285 = DIRECTION ( 'NONE',  ( -1.000000000000000000, -0.0000000000000000000, -0.0000000000000000000 ) ) ;
#286 = EDGE_LOOP ( 'NONE', ( #137, #292, #283 ) ) ;
#287 = EDGE_CURVE ( 'NONE', #342, #64, #180, .T. ) ;
#288 = CARTESIAN_POINT ( 'NONE',  ( 97.64166897357473800, 0.0000000000000000000, 2.012829774601550400E-015 ) ) ;
#289 = EDGE_CURVE ( 'NONE', #64, #187, #23, .T. ) ;
#290 = SURFACE_STYLE_FILL_AREA ( #6 ) ;
#291 = DIRECTION ( 'NONE',  ( 0.0000000000000000000, 0.0000000000000000000, 1.000000000000000000 ) ) ;
#292 = ORIENTED_EDGE ( 'NONE', *, *, #332, .T. ) ;
#293 = CARTESIAN_POINT ( 'NONE',  ( 14.87966897357473400, 0.0000000000000000000, 1.355252715606880500E-017 ) ) ;
#294 = STYLED_ITEM ( 'NONE', ( #307 ), #196 ) ;
#295 = VERTEX_POINT ( 'NONE', #35 ) ;
#296 = FACE_OUTER_BOUND ( 'NONE', #70, .T. ) ;
#297 = AXIS2_PLACEMENT_3D ( 'NONE', #183, #131, #326 ) ;
#298 = CARTESIAN_POINT ( 'NONE',  ( -9.702612178336682500, 1.530808498934191900E-015, -12.50000000000000400 ) ) ;
#299 = ORIENTED_EDGE ( 'NONE', *, *, #50, .F. ) ;
#300 = ORIENTED_EDGE ( 'NONE', *, *, #139, .T. ) ;
#301 = EDGE_CURVE ( 'NONE', #64, #72, #84, .T. ) ;
#302 = ORIENTED_EDGE ( 'NONE', *, *, #212, .F. ) ;
#303 = UNCERTAINTY_MEASURE_WITH_UNIT (LENGTH_MEASURE( 1.000000000000000100E-005 ), #114, 'distance_accuracy_value', 'NONE');
#304 = CARTESIAN_POINT ( 'NONE',  ( -57.59733102642526600, 0.0000000000000000000, 0.0000000000000000000 ) ) ;
#305 = AXIS2_PLACEMENT_3D ( 'NONE', #169, #69, #91 ) ;
#306 = ADVANCED_FACE ( 'NONE', ( #30 ), #231, .T. ) ;
#307 = PRESENTATION_STYLE_ASSIGNMENT (( #193 ) ) ;
#308 = CARTESIAN_POINT ( 'NONE',  ( 52.45666897357473600, 0.0000000000000000000, 2.314480165734073400E-015 ) ) ;
#309 = APPLICATION_CONTEXT ( 'automotive_design' ) ;
#310 = DIRECTION ( 'NONE',  ( -0.0000000000000000000, -1.000000000000000000, -0.0000000000000000000 ) ) ;
#311 = SPHERICAL_SURFACE ( 'NONE', #27, 37.57699999999999800 ) ;
#312 = CARTESIAN_POINT ( 'NONE',  ( -0.5519199926577972300, 1.530808498934191100E-015, -12.49999999999999600 ) ) ;
#313 = DIRECTION ( 'NONE',  ( 0.0000000000000000000, 0.0000000000000000000, -1.000000000000000000 ) ) ;
#314 = EDGE_LOOP ( 'NONE', ( #299, #159, #302 ) ) ;
#315 = EDGE_LOOP ( 'NONE', ( #127, #126, #128, #32 ) ) ;
#316 = DIRECTION ( 'NONE',  ( 0.0000000000000000000, 0.0000000000000000000, 1.000000000000000000 ) ) ;
#317 = SURFACE_SIDE_STYLE ('',( #290 ) ) ;
#318 = EDGE_CURVE ( 'NONE', #342, #72, #260, .T. ) ;
#319 = DIRECTION ( 'NONE',  ( -1.000000000000000000, -0.0000000000000000000, -0.0000000000000000000 ) ) ;
#320 = FILL_AREA_STYLE ('',( #189 ) ) ;
#321 = MANIFOLD_SOLID_BREP ( 'Ðý×ª3', #168 ) ;
#322 = MECHANICAL_DESIGN_GEOMETRIC_PRESENTATION_REPRESENTATION (  '', ( #294 ), #4 ) ;
#323 = DIRECTION ( 'NONE',  ( -0.0000000000000000000, 1.000000000000000000, 1.224646799147353200E-016 ) ) ;
#324 = ORIENTED_EDGE ( 'NONE', *, *, #271, .F. ) ;
#325 = FACE_OUTER_BOUND ( 'NONE', #104, .T. ) ;
#326 = DIRECTION ( 'NONE',  ( 0.0000000000000000000, 0.0000000000000000000, -1.000000000000000000 ) ) ;
#327 = EDGE_CURVE ( 'NONE', #55, #73, #344, .T. ) ;
#328 = VERTEX_POINT ( 'NONE', #164 ) ;
#329 = ORIENTED_EDGE ( 'NONE', *, *, #318, .T. ) ;
#330 = SHAPE_DEFINITION_REPRESENTATION ( #162, #86 ) ;
#331 = SURFACE_SIDE_STYLE ('',( #246 ) ) ;
#332 = EDGE_CURVE ( 'NONE', #328, #187, #45, .T. ) ;
#333 = CARTESIAN_POINT ( 'NONE',  ( 53.75727784092247700, 1.530808498934190300E-015, -12.49999999999998900 ) ) ;
#334 =( NAMED_UNIT ( * ) PLANE_ANGLE_UNIT ( ) SI_UNIT ( $, .RADIAN. ) );
#335 = DIRECTION ( 'NONE',  ( 1.000000000000000000, 0.0000000000000000000, 0.0000000000000000000 ) ) ;
#336 = ADVANCED_FACE ( 'NONE', ( #148 ), #343, .T. ) ;
#337 = CIRCLE ( 'NONE', #85, 12.50000000000000400 ) ;
#338 = ADVANCED_FACE ( 'NONE', ( #251 ), #311, .T. ) ;
#339 = ORIENTED_EDGE ( 'NONE', *, *, #230, .T. ) ;
#340 = ORIENTED_EDGE ( 'NONE', *, *, #230, .F. ) ;
#341 = CARTESIAN_POINT ( 'NONE',  ( -57.59733102642526600, 0.0000000000000000000, 0.0000000000000000000 ) ) ;
#342 = VERTEX_POINT ( 'NONE', #216 ) ;
#343 = CYLINDRICAL_SURFACE ( 'NONE', #62, 12.49999999999999600 ) ;
#344 = CIRCLE ( 'NONE', #121, 37.57699999999999800 ) ;
#345 = UNCERTAINTY_MEASURE_WITH_UNIT (LENGTH_MEASURE( 1.000000000000000100E-005 ), #75, 'distance_accuracy_value', 'NONE');
#346 = EDGE_CURVE ( 'NONE', #328, #270, #116, .T. ) ;
#347 = DIRECTION ( 'NONE',  ( -1.000000000000000000, -0.0000000000000000000, -0.0000000000000000000 ) ) ;
ENDSEC;
END-ISO-10303-21;
