ISO-10303-21;
HEADER;
FILE_DESCRIPTION (( 'STEP AP214' ),
    '1' );
FILE_NAME ('145050.STEP',
    '2019-05-14T02:19:19',
    ( 'user' ),
    ( 'Î¢ÈíÖÐ¹ú' ),
    'SwSTEP 2.0',
    'SolidWorks 2016',
    '' );
FILE_SCHEMA (( 'AUTOMOTIVE_DESIGN' ));
ENDSEC;

DATA;
#1 = CARTESIAN_POINT ( 'NONE',  ( 210.5396697642883100, 0.0000000000000000000, 8.470329472543003400E-019 ) ) ;
#2 = ORIENTED_EDGE ( 'NONE', *, *, #5, .F. ) ;
#3 = ADVANCED_BREP_SHAPE_REPRESENTATION ( '145050', ( #183, #140, #329 ), #110 ) ;
#4 = AXIS2_PLACEMENT_3D ( 'NONE', #56, #82, #326 ) ;
#5 = EDGE_CURVE ( 'NONE', #127, #279, #98, .T. ) ;
#6 = VECTOR ( 'NONE', #161, 1000.000000000000000 ) ;
#7 = STYLED_ITEM ( 'NONE', ( #187 ), #140 ) ;
#8 = ADVANCED_FACE ( 'NONE', ( #236 ), #228, .T. ) ;
#9 = ORIENTED_EDGE ( 'NONE', *, *, #253, .F. ) ;
#10 = DIRECTION ( 'NONE',  ( 0.0000000000000000000, 0.0000000000000000000, 1.000000000000000000 ) ) ;
#11 = ORIENTED_EDGE ( 'NONE', *, *, #52, .F. ) ;
#12 = ADVANCED_FACE ( 'NONE', ( #197 ), #23, .T. ) ;
#13 = DIRECTION ( 'NONE',  ( 0.0000000000000000000, 1.000000000000000000, 0.0000000000000000000 ) ) ;
#14 = COLOUR_RGB ( '',1.000000000000000000, 1.000000000000000000, 1.000000000000000000 ) ;
#15 = APPLICATION_PROTOCOL_DEFINITION ( 'draft international standard', 'automotive_design', 1998, #160 ) ;
#16 = DIRECTION ( 'NONE',  ( -1.000000000000000000, -0.0000000000000000000, -0.0000000000000000000 ) ) ;
#17 = SPHERICAL_SURFACE ( 'NONE', #43, 16.70000000000000600 ) ;
#18 = DIRECTION ( 'NONE',  ( 0.0000000000000000000, 0.0000000000000000000, 1.000000000000000000 ) ) ;
#19 = EDGE_LOOP ( 'NONE', ( #184, #209, #276, #307 ) ) ;
#20 = CIRCLE ( 'NONE', #146, 16.70000000000000600 ) ;
#21 = EDGE_LOOP ( 'NONE', ( #54, #91, #174 ) ) ;
#22 = PRESENTATION_LAYER_ASSIGNMENT (  '', '', ( #185 ) ) ;
#23 = SPHERICAL_SURFACE ( 'NONE', #152, 16.70000000000000600 ) ;
#24 = COLOUR_RGB ( '',1.000000000000000000, 1.000000000000000000, 1.000000000000000000 ) ;
#25 = PRESENTATION_LAYER_ASSIGNMENT (  '', '', ( #7 ) ) ;
#26 = VERTEX_POINT ( 'NONE', #85 ) ;
#27 = DIRECTION ( 'NONE',  ( 0.0000000000000000000, 0.0000000000000000000, 1.000000000000000000 ) ) ;
#28 = EDGE_CURVE ( 'NONE', #192, #127, #86, .T. ) ;
#29 = DIRECTION ( 'NONE',  ( 0.0000000000000000000, -1.224646799147353200E-016, 1.000000000000000000 ) ) ;
#30 = ORIENTED_EDGE ( 'NONE', *, *, #156, .T. ) ;
#31 = CYLINDRICAL_SURFACE ( 'NONE', #303, 12.69999999999999900 ) ;
#32 = CARTESIAN_POINT ( 'NONE',  ( 227.2396697642883200, 0.0000000000000000000, 1.023427110235294600E-015 ) ) ;
#33 = PRODUCT_RELATED_PRODUCT_CATEGORY ( 'part', '', ( #40 ) ) ;
#34 = DIRECTION ( 'NONE',  ( -1.000000000000000000, -0.0000000000000000000, -0.0000000000000000000 ) ) ;
#35 = ADVANCED_FACE ( 'NONE', ( #153 ), #162, .T. ) ;
#36 = DIRECTION ( 'NONE',  ( 1.000000000000000000, 0.0000000000000000000, 0.0000000000000000000 ) ) ;
#37 = DIRECTION ( 'NONE',  ( -1.000000000000000000, -0.0000000000000000000, -0.0000000000000000000 ) ) ;
#38 = ADVANCED_FACE ( 'NONE', ( #73 ), #344, .T. ) ;
#39 = DIRECTION ( 'NONE',  ( 0.0000000000000000000, 0.0000000000000000000, -1.000000000000000000 ) ) ;
#40 = PRODUCT ( '145050', '145050', '', ( #188 ) ) ;
#41 = EDGE_LOOP ( 'NONE', ( #81, #296, #336, #104 ) ) ;
#42 = DIRECTION ( 'NONE',  ( 0.0000000000000000000, 1.000000000000000000, 0.0000000000000000000 ) ) ;
#43 = AXIS2_PLACEMENT_3D ( 'NONE', #332, #191, #168 ) ;
#44 = CARTESIAN_POINT ( 'NONE',  ( 221.3840231336690700, 1.555301434917138400E-015, -12.69999999999999900 ) ) ;
#45 = FACE_OUTER_BOUND ( 'NONE', #19, .T. ) ;
#46 = EDGE_CURVE ( 'NONE', #192, #279, #301, .T. ) ;
#47 =( NAMED_UNIT ( * ) SI_UNIT ( $, .STERADIAN. ) SOLID_ANGLE_UNIT ( ) );
#48 = AXIS2_PLACEMENT_3D ( 'NONE', #302, #136, #328 ) ;
#49 = DIRECTION ( 'NONE',  ( 0.0000000000000000000, -1.000000000000000000, 0.0000000000000000000 ) ) ;
#50 = COLOUR_RGB ( '',1.000000000000000000, 1.000000000000000000, 1.000000000000000000 ) ;
#51 = ORIENTED_EDGE ( 'NONE', *, *, #270, .F. ) ;
#52 = EDGE_CURVE ( 'NONE', #289, #319, #274, .T. ) ;
#53 = PRODUCT_DEFINITION_FORMATION_WITH_SPECIFIED_SOURCE ( 'ÈÎºÎ', '', #40, .NOT_KNOWN. ) ;
#54 = ORIENTED_EDGE ( 'NONE', *, *, #291, .F. ) ;
#55 = CARTESIAN_POINT ( 'NONE',  ( 236.1396697642882400, 0.0000000000000000000, 5.094210746724349800E-016 ) ) ;
#56 = CARTESIAN_POINT ( 'NONE',  ( -0.5519199926577972300, 0.0000000000000000000, 0.0000000000000000000 ) ) ;
#57 = ORIENTED_EDGE ( 'NONE', *, *, #70, .F. ) ;
#58 = SURFACE_STYLE_USAGE ( .BOTH. , #331 ) ;
#59 = CIRCLE ( 'NONE', #243, 16.70000000000000600 ) ;
#60 = AXIS2_PLACEMENT_3D ( 'NONE', #90, #277, #115 ) ;
#61 = CARTESIAN_POINT ( 'NONE',  ( 219.5408746272911200, 0.0000000000000000000, 0.0000000000000000000 ) ) ;
#62 = AXIS2_PLACEMENT_3D ( 'NONE', #55, #182, #325 ) ;
#63 = ORIENTED_EDGE ( 'NONE', *, *, #204, .T. ) ;
#64 = ORIENTED_EDGE ( 'NONE', *, *, #204, .F. ) ;
#65 = CARTESIAN_POINT ( 'NONE',  ( 227.2396697642883200, 0.0000000000000000000, 1.023427110235294600E-015 ) ) ;
#66 = CARTESIAN_POINT ( 'NONE',  ( 215.2396697642882400, 0.0000000000000000000, -7.703348304365484800E-016 ) ) ;
#67 = UNCERTAINTY_MEASURE_WITH_UNIT (LENGTH_MEASURE( 1.000000000000000100E-005 ), #341, 'distance_accuracy_value', 'NONE');
#68 = EDGE_LOOP ( 'NONE', ( #269, #235, #63 ) ) ;
#69 = DIRECTION ( 'NONE',  ( -1.000000000000000000, -0.0000000000000000000, -0.0000000000000000000 ) ) ;
#70 = EDGE_CURVE ( 'NONE', #319, #309, #205, .T. ) ;
#71 = DIRECTION ( 'NONE',  ( -0.0000000000000000000, 1.000000000000000000, 1.224646799147353200E-016 ) ) ;
#72 = CARTESIAN_POINT ( 'NONE',  ( 229.2396697642883200, 0.0000000000000000000, 4.886340728597938900E-015 ) ) ;
#73 = FACE_OUTER_BOUND ( 'NONE', #76, .T. ) ;
#74 = CARTESIAN_POINT ( 'NONE',  ( 236.1396697642882400, 0.0000000000000000000, 5.094210746724349800E-016 ) ) ;
#75 = ORIENTED_EDGE ( 'NONE', *, *, #126, .F. ) ;
#76 = EDGE_LOOP ( 'NONE', ( #254, #93, #133 ) ) ;
#77 = AXIS2_PLACEMENT_3D ( 'NONE', #267, #294, #108 ) ;
#78 = CIRCLE ( 'NONE', #134, 20.89999999999999100 ) ;
#79 = AXIS2_PLACEMENT_3D ( 'NONE', #231, #16, #18 ) ;
#80 = CIRCLE ( 'NONE', #60, 79.79999999999999700 ) ;
#81 = ORIENTED_EDGE ( 'NONE', *, *, #270, .T. ) ;
#82 = DIRECTION ( 'NONE',  ( -1.000000000000000000, -0.0000000000000000000, -0.0000000000000000000 ) ) ;
#83 = DIRECTION ( 'NONE',  ( 0.0000000000000000000, 1.000000000000000000, 0.0000000000000000000 ) ) ;
#84 =( NAMED_UNIT ( * ) PLANE_ANGLE_UNIT ( ) SI_UNIT ( $, .RADIAN. ) );
#85 = CARTESIAN_POINT ( 'NONE',  ( 219.5408746272911200, 0.0000000000000000000, -12.69999999999999800 ) ) ;
#86 = CIRCLE ( 'NONE', #77, 16.70000000000000600 ) ;
#87 = DIRECTION ( 'NONE',  ( 0.0000000000000000000, 0.0000000000000000000, 1.000000000000000000 ) ) ;
#88 = CARTESIAN_POINT ( 'NONE',  ( 219.5408746272911200, -1.555301434917138000E-015, 12.69999999999999800 ) ) ;
#89 = EDGE_CURVE ( 'NONE', #26, #150, #287, .T. ) ;
#90 = CARTESIAN_POINT ( 'NONE',  ( 149.4396697642883400, 0.0000000000000000000, 0.0000000000000000000 ) ) ;
#91 = ORIENTED_EDGE ( 'NONE', *, *, #346, .T. ) ;
#92 = FILL_AREA_STYLE_COLOUR ( '', #24 ) ;
#93 = ORIENTED_EDGE ( 'NONE', *, *, #28, .T. ) ;
#94 = DIRECTION ( 'NONE',  ( -1.000000000000000000, -0.0000000000000000000, -0.0000000000000000000 ) ) ;
#95 = DIRECTION ( 'NONE',  ( 0.0000000000000000000, 0.0000000000000000000, 1.000000000000000000 ) ) ;
#96 = CIRCLE ( 'NONE', #262, 12.69999999999999900 ) ;
#97 = DIRECTION ( 'NONE',  ( 0.0000000000000000000, 0.0000000000000000000, 1.000000000000000000 ) ) ;
#98 = CIRCLE ( 'NONE', #176, 12.69999999999999900 ) ;
#99 = AXIS2_PLACEMENT_3D ( 'NONE', #122, #42, #145 ) ;
#100 = FILL_AREA_STYLE ('',( #199 ) ) ;
#101 = DIRECTION ( 'NONE',  ( -1.000000000000000000, -0.0000000000000000000, -0.0000000000000000000 ) ) ;
#102 =( NAMED_UNIT ( * ) PLANE_ANGLE_UNIT ( ) SI_UNIT ( $, .RADIAN. ) );
#103 = ORIENTED_EDGE ( 'NONE', *, *, #198, .T. ) ;
#104 = ORIENTED_EDGE ( 'NONE', *, *, #293, .F. ) ;
#105 =( GEOMETRIC_REPRESENTATION_CONTEXT ( 3 ) GLOBAL_UNCERTAINTY_ASSIGNED_CONTEXT ( ( #261 ) ) GLOBAL_UNIT_ASSIGNED_CONTEXT ( ( #244, #84, #167 ) ) REPRESENTATION_CONTEXT ( 'NONE', 'WORKASPACE' ) );
#106 = EDGE_CURVE ( 'NONE', #26, #208, #78, .T. ) ;
#107 = LINE ( 'NONE', #285, #263 ) ;
#108 = DIRECTION ( 'NONE',  ( 0.0000000000000000000, 0.0000000000000000000, -1.000000000000000000 ) ) ;
#109 = ORIENTED_EDGE ( 'NONE', *, *, #135, .T. ) ;
#110 =( GEOMETRIC_REPRESENTATION_CONTEXT ( 3 ) GLOBAL_UNCERTAINTY_ASSIGNED_CONTEXT ( ( #67 ) ) GLOBAL_UNIT_ASSIGNED_CONTEXT ( ( #341, #102, #47 ) ) REPRESENTATION_CONTEXT ( 'NONE', 'WORKASPACE' ) );
#111 = FACE_OUTER_BOUND ( 'NONE', #223, .T. ) ;
#112 = APPLICATION_CONTEXT ( 'automotive_design' ) ;
#113 = PRODUCT_DEFINITION_CONTEXT ( 'detailed design', #112, 'design' ) ;
#114 = DIRECTION ( 'NONE',  ( -1.000000000000000000, -0.0000000000000000000, -0.0000000000000000000 ) ) ;
#115 = DIRECTION ( 'NONE',  ( 0.0000000000000000000, 0.0000000000000000000, -1.000000000000000000 ) ) ;
#116 = CIRCLE ( 'NONE', #130, 12.69999999999999900 ) ;
#117 = SURFACE_SIDE_STYLE ('',( #154 ) ) ;
#118 = DIRECTION ( 'NONE',  ( 0.0000000000000000000, 0.0000000000000000000, 1.000000000000000000 ) ) ;
#119 = AXIS2_PLACEMENT_3D ( 'NONE', #275, #114, #305 ) ;
#120 = ORIENTED_EDGE ( 'NONE', *, *, #106, .F. ) ;
#121 = FACE_OUTER_BOUND ( 'NONE', #68, .T. ) ;
#122 = CARTESIAN_POINT ( 'NONE',  ( 149.4396697642883400, 0.0000000000000000000, 0.0000000000000000000 ) ) ;
#123 = FACE_OUTER_BOUND ( 'NONE', #21, .T. ) ;
#124 =( LENGTH_UNIT ( ) NAMED_UNIT ( * ) SI_UNIT ( .MILLI., .METRE. ) );
#125 = CLOSED_SHELL ( 'NONE', ( #12, #220, #35, #215, #224, #38 ) ) ;
#126 = EDGE_CURVE ( 'NONE', #319, #206, #147, .T. ) ;
#127 = VERTEX_POINT ( 'NONE', #273 ) ;
#128 = EDGE_LOOP ( 'NONE', ( #9, #103, #347, #313 ) ) ;
#129 = VECTOR ( 'NONE', #101, 1000.000000000000000 ) ;
#130 = AXIS2_PLACEMENT_3D ( 'NONE', #149, #317, #283 ) ;
#131 = ORIENTED_EDGE ( 'NONE', *, *, #156, .F. ) ;
#132 = DIRECTION ( 'NONE',  ( 0.0000000000000000000, 0.0000000000000000000, 1.000000000000000000 ) ) ;
#133 = ORIENTED_EDGE ( 'NONE', *, *, #198, .F. ) ;
#134 = AXIS2_PLACEMENT_3D ( 'NONE', #304, #138, #330 ) ;
#135 = EDGE_CURVE ( 'NONE', #343, #309, #137, .T. ) ;
#136 = DIRECTION ( 'NONE',  ( -0.0000000000000000000, 1.000000000000000000, 1.224646799147353200E-016 ) ) ;
#137 = CIRCLE ( 'NONE', #119, 12.69999999999999900 ) ;
#138 = DIRECTION ( 'NONE',  ( 0.0000000000000000000, 1.000000000000000000, -0.0000000000000000000 ) ) ;
#139 = FILL_AREA_STYLE ('',( #246 ) ) ;
#140 = MANIFOLD_SOLID_BREP ( 'Ðý×ª3', #259 ) ;
#141 =( LENGTH_UNIT ( ) NAMED_UNIT ( * ) SI_UNIT ( .MILLI., .METRE. ) );
#142 = ORIENTED_EDGE ( 'NONE', *, *, #293, .T. ) ;
#143 = CARTESIAN_POINT ( 'NONE',  ( 221.3840231336690700, 0.0000000000000000000, 0.0000000000000000000 ) ) ;
#144 = CYLINDRICAL_SURFACE ( 'NONE', #265, 12.69999999999999900 ) ;
#145 = DIRECTION ( 'NONE',  ( 0.0000000000000000000, 0.0000000000000000000, 1.000000000000000000 ) ) ;
#146 = AXIS2_PLACEMENT_3D ( 'NONE', #345, #49, #320 ) ;
#147 = CIRCLE ( 'NONE', #173, 12.69999999999999900 ) ;
#148 =( NAMED_UNIT ( * ) PLANE_ANGLE_UNIT ( ) SI_UNIT ( $, .RADIAN. ) );
#149 = CARTESIAN_POINT ( 'NONE',  ( 219.5408746272911200, 0.0000000000000000000, 0.0000000000000000000 ) ) ;
#150 = VERTEX_POINT ( 'NONE', #88 ) ;
#151 = VERTEX_POINT ( 'NONE', #32 ) ;
#152 = AXIS2_PLACEMENT_3D ( 'NONE', #268, #83, #132 ) ;
#153 = FACE_OUTER_BOUND ( 'NONE', #239, .T. ) ;
#154 = SURFACE_STYLE_FILL_AREA ( #278 ) ;
#155 = CARTESIAN_POINT ( 'NONE',  ( 228.2225993873989900, 1.555301434917138400E-015, -12.69999999999999900 ) ) ;
#156 = EDGE_CURVE ( 'NONE', #289, #206, #80, .T. ) ;
#157 = EDGE_LOOP ( 'NONE', ( #297, #290, #2 ) ) ;
#158 = CARTESIAN_POINT ( 'NONE',  ( 221.3840231336690700, 0.0000000000000000000, 0.0000000000000000000 ) ) ;
#159 = ORIENTED_EDGE ( 'NONE', *, *, #291, .T. ) ;
#160 = APPLICATION_CONTEXT ( 'automotive_design' ) ;
#161 = DIRECTION ( 'NONE',  ( -1.000000000000000000, -0.0000000000000000000, -0.0000000000000000000 ) ) ;
#162 = SPHERICAL_SURFACE ( 'NONE', #62, 20.89999999999999100 ) ;
#163 = AXIS2_PLACEMENT_3D ( 'NONE', #74, #342, #230 ) ;
#164 = SPHERICAL_SURFACE ( 'NONE', #99, 79.79999999999999700 ) ;
#165 = EDGE_CURVE ( 'NONE', #127, #150, #295, .T. ) ;
#166 = ADVANCED_FACE ( 'NONE', ( #217 ), #17, .F. ) ;
#167 =( NAMED_UNIT ( * ) SI_UNIT ( $, .STERADIAN. ) SOLID_ANGLE_UNIT ( ) );
#168 = DIRECTION ( 'NONE',  ( 0.0000000000000000000, 0.0000000000000000000, 1.000000000000000000 ) ) ;
#169 = ORIENTED_EDGE ( 'NONE', *, *, #126, .T. ) ;
#170 =( NAMED_UNIT ( * ) SI_UNIT ( $, .STERADIAN. ) SOLID_ANGLE_UNIT ( ) );
#171 = ADVANCED_FACE ( 'NONE', ( #238 ), #31, .T. ) ;
#172 = DIRECTION ( 'NONE',  ( 0.0000000000000000000, 0.0000000000000000000, 1.000000000000000000 ) ) ;
#173 = AXIS2_PLACEMENT_3D ( 'NONE', #189, #34, #214 ) ;
#174 = ORIENTED_EDGE ( 'NONE', *, *, #106, .T. ) ;
#175 = PRESENTATION_STYLE_ASSIGNMENT (( #308 ) ) ;
#176 = AXIS2_PLACEMENT_3D ( 'NONE', #158, #207, #27 ) ;
#177 = CARTESIAN_POINT ( 'NONE',  ( 210.5396697642883100, 0.0000000000000000000, 8.470329472543003400E-019 ) ) ;
#178 = SURFACE_STYLE_FILL_AREA ( #100 ) ;
#179 = CARTESIAN_POINT ( 'NONE',  ( 221.3840231336690700, 1.555301434917138400E-015, -12.69999999999999900 ) ) ;
#180 = SHAPE_DEFINITION_REPRESENTATION ( #300, #3 ) ;
#181 = ORIENTED_EDGE ( 'NONE', *, *, #233, .F. ) ;
#182 = DIRECTION ( 'NONE',  ( -0.0000000000000000000, -1.000000000000000000, -0.0000000000000000000 ) ) ;
#183 = MANIFOLD_SOLID_BREP ( 'Ðý×ª1', #125 ) ;
#184 = ORIENTED_EDGE ( 'NONE', *, *, #5, .T. ) ;
#185 = STYLED_ITEM ( 'NONE', ( #175 ), #183 ) ;
#186 = CARTESIAN_POINT ( 'NONE',  ( 210.5396697642883100, 0.0000000000000000000, 8.470329472543003400E-019 ) ) ;
#187 = PRESENTATION_STYLE_ASSIGNMENT (( #58 ) ) ;
#188 = PRODUCT_CONTEXT ( 'NONE', #160, 'mechanical' ) ;
#189 = CARTESIAN_POINT ( 'NONE',  ( 228.2225993873989900, 0.0000000000000000000, 0.0000000000000000000 ) ) ;
#190 = PRODUCT_DEFINITION ( 'Î´Öª', '', #53, #113 ) ;
#191 = DIRECTION ( 'NONE',  ( 0.0000000000000000000, 1.000000000000000000, 0.0000000000000000000 ) ) ;
#192 = VERTEX_POINT ( 'NONE', #65 ) ;
#193 = DIRECTION ( 'NONE',  ( -0.0000000000000000000, -1.000000000000000000, -0.0000000000000000000 ) ) ;
#194 = UNCERTAINTY_MEASURE_WITH_UNIT (LENGTH_MEASURE( 1.000000000000000100E-005 ), #141, 'distance_accuracy_value', 'NONE');
#195 = DIRECTION ( 'NONE',  ( 0.0000000000000000000, 0.0000000000000000000, 1.000000000000000000 ) ) ;
#196 = STYLED_ITEM ( 'NONE', ( #234 ), #3 ) ;
#197 = FACE_OUTER_BOUND ( 'NONE', #157, .T. ) ;
#198 = EDGE_CURVE ( 'NONE', #279, #127, #96, .T. ) ;
#199 = FILL_AREA_STYLE_COLOUR ( '', #50 ) ;
#200 = DIRECTION ( 'NONE',  ( -1.000000000000000000, -0.0000000000000000000, -0.0000000000000000000 ) ) ;
#201 = EDGE_LOOP ( 'NONE', ( #57, #169, #142, #64 ) ) ;
#202 = SPHERICAL_SURFACE ( 'NONE', #316, 16.70000000000000600 ) ;
#203 = AXIS2_PLACEMENT_3D ( 'NONE', #61, #245, #87 ) ;
#204 = EDGE_CURVE ( 'NONE', #309, #343, #323, .T. ) ;
#205 = LINE ( 'NONE', #298, #6 ) ;
#206 = VERTEX_POINT ( 'NONE', #219 ) ;
#207 = DIRECTION ( 'NONE',  ( -1.000000000000000000, -0.0000000000000000000, -0.0000000000000000000 ) ) ;
#208 = VERTEX_POINT ( 'NONE', #66 ) ;
#209 = ORIENTED_EDGE ( 'NONE', *, *, #253, .T. ) ;
#210 = DIRECTION ( 'NONE',  ( -0.0000000000000000000, 1.000000000000000000, 1.224646799147353200E-016 ) ) ;
#211 = SURFACE_STYLE_FILL_AREA ( #139 ) ;
#212 = PRESENTATION_LAYER_ASSIGNMENT (  '', '', ( #196 ) ) ;
#213 = CARTESIAN_POINT ( 'NONE',  ( -0.5519199926577972300, 0.0000000000000000000, 0.0000000000000000000 ) ) ;
#214 = DIRECTION ( 'NONE',  ( 0.0000000000000000000, 0.0000000000000000000, 1.000000000000000000 ) ) ;
#215 = ADVANCED_FACE ( 'NONE', ( #123 ), #312, .T. ) ;
#216 = CARTESIAN_POINT ( 'NONE',  ( -9.702612178336682500, 0.0000000000000000000, 12.69999999999999900 ) ) ;
#217 = FACE_OUTER_BOUND ( 'NONE', #260, .T. ) ;
#218 = CARTESIAN_POINT ( 'NONE',  ( 0.0000000000000000000, 0.0000000000000000000, 0.0000000000000000000 ) ) ;
#219 = CARTESIAN_POINT ( 'NONE',  ( 228.2225993873989900, 0.0000000000000000000, 12.69999999999999900 ) ) ;
#220 = ADVANCED_FACE ( 'NONE', ( #45 ), #266, .T. ) ;
#221 = ORIENTED_EDGE ( 'NONE', *, *, #339, .T. ) ;
#222 = CIRCLE ( 'NONE', #79, 12.69999999999999900 ) ;
#223 = EDGE_LOOP ( 'NONE', ( #11, #30, #75 ) ) ;
#224 = ADVANCED_FACE ( 'NONE', ( #264 ), #144, .T. ) ;
#225 = CARTESIAN_POINT ( 'NONE',  ( -9.702612178336682500, 0.0000000000000000000, 0.0000000000000000000 ) ) ;
#226 =( GEOMETRIC_REPRESENTATION_CONTEXT ( 3 ) GLOBAL_UNCERTAINTY_ASSIGNED_CONTEXT ( ( #194 ) ) GLOBAL_UNIT_ASSIGNED_CONTEXT ( ( #141, #334, #170 ) ) REPRESENTATION_CONTEXT ( 'NONE', 'WORKASPACE' ) );
#227 = CARTESIAN_POINT ( 'NONE',  ( 210.5396697642883100, 0.0000000000000000000, 8.470329472543003400E-019 ) ) ;
#228 = CYLINDRICAL_SURFACE ( 'NONE', #4, 12.69999999999999900 ) ;
#229 = APPLICATION_PROTOCOL_DEFINITION ( 'draft international standard', 'automotive_design', 1998, #112 ) ;
#230 = DIRECTION ( 'NONE',  ( 0.0000000000000000000, 1.224646799147353200E-016, -1.000000000000000000 ) ) ;
#231 = CARTESIAN_POINT ( 'NONE',  ( 228.2225993873989900, 0.0000000000000000000, 0.0000000000000000000 ) ) ;
#232 = EDGE_LOOP ( 'NONE', ( #131, #333, #51 ) ) ;
#233 = EDGE_CURVE ( 'NONE', #151, #309, #59, .T. ) ;
#234 = PRESENTATION_STYLE_ASSIGNMENT (( #255 ) ) ;
#235 = ORIENTED_EDGE ( 'NONE', *, *, #233, .T. ) ;
#236 = FACE_OUTER_BOUND ( 'NONE', #201, .T. ) ;
#237 = CIRCLE ( 'NONE', #163, 20.89999999999999100 ) ;
#238 = FACE_OUTER_BOUND ( 'NONE', #41, .T. ) ;
#239 = EDGE_LOOP ( 'NONE', ( #242, #159, #120 ) ) ;
#240 = DIRECTION ( 'NONE',  ( 0.0000000000000000000, 1.000000000000000000, 0.0000000000000000000 ) ) ;
#241 = SPHERICAL_SURFACE ( 'NONE', #286, 79.79999999999999700 ) ;
#242 = ORIENTED_EDGE ( 'NONE', *, *, #89, .T. ) ;
#243 = AXIS2_PLACEMENT_3D ( 'NONE', #227, #71, #256 ) ;
#244 =( LENGTH_UNIT ( ) NAMED_UNIT ( * ) SI_UNIT ( .MILLI., .METRE. ) );
#245 = DIRECTION ( 'NONE',  ( -1.000000000000000000, -0.0000000000000000000, -0.0000000000000000000 ) ) ;
#246 = FILL_AREA_STYLE_COLOUR ( '', #14 ) ;
#247 = ADVANCED_FACE ( 'NONE', ( #111 ), #241, .T. ) ;
#248 = DIRECTION ( 'NONE',  ( -1.000000000000000000, -0.0000000000000000000, -0.0000000000000000000 ) ) ;
#249 = ADVANCED_FACE ( 'NONE', ( #321 ), #164, .T. ) ;
#250 = DIRECTION ( 'NONE',  ( 0.0000000000000000000, 0.0000000000000000000, 1.000000000000000000 ) ) ;
#251 = CARTESIAN_POINT ( 'NONE',  ( 221.3840231336690700, 0.0000000000000000000, 0.0000000000000000000 ) ) ;
#252 = ADVANCED_FACE ( 'NONE', ( #121 ), #202, .F. ) ;
#253 = EDGE_CURVE ( 'NONE', #279, #26, #315, .T. ) ;
#254 = ORIENTED_EDGE ( 'NONE', *, *, #46, .F. ) ;
#255 = SURFACE_STYLE_USAGE ( .BOTH. , #257 ) ;
#256 = DIRECTION ( 'NONE',  ( 0.0000000000000000000, -1.224646799147353200E-016, 1.000000000000000000 ) ) ;
#257 = SURFACE_SIDE_STYLE ('',( #178 ) ) ;
#258 = CARTESIAN_POINT ( 'NONE',  ( -9.702612178336682500, 1.555301434917138400E-015, -12.69999999999999900 ) ) ;
#259 = CLOSED_SHELL ( 'NONE', ( #249, #171, #252, #166, #8, #247 ) ) ;
#260 = EDGE_LOOP ( 'NONE', ( #181, #221, #109 ) ) ;
#261 = UNCERTAINTY_MEASURE_WITH_UNIT (LENGTH_MEASURE( 1.000000000000000100E-005 ), #244, 'distance_accuracy_value', 'NONE');
#262 = AXIS2_PLACEMENT_3D ( 'NONE', #251, #94, #280 ) ;
#263 = VECTOR ( 'NONE', #200, 1000.000000000000000 ) ;
#264 = FACE_OUTER_BOUND ( 'NONE', #128, .T. ) ;
#265 = AXIS2_PLACEMENT_3D ( 'NONE', #281, #311, #95 ) ;
#266 = CYLINDRICAL_SURFACE ( 'NONE', #324, 12.69999999999999900 ) ;
#267 = CARTESIAN_POINT ( 'NONE',  ( 210.5396697642883100, 0.0000000000000000000, 8.470329472543003400E-019 ) ) ;
#268 = CARTESIAN_POINT ( 'NONE',  ( 210.5396697642883100, 0.0000000000000000000, 8.470329472543003400E-019 ) ) ;
#269 = ORIENTED_EDGE ( 'NONE', *, *, #339, .F. ) ;
#270 = EDGE_CURVE ( 'NONE', #206, #319, #222, .T. ) ;
#271 = DIRECTION ( 'NONE',  ( 0.0000000000000000000, 0.0000000000000000000, 1.000000000000000000 ) ) ;
#272 =( GEOMETRIC_REPRESENTATION_CONTEXT ( 3 ) GLOBAL_UNCERTAINTY_ASSIGNED_CONTEXT ( ( #327 ) ) GLOBAL_UNIT_ASSIGNED_CONTEXT ( ( #124, #148, #284 ) ) REPRESENTATION_CONTEXT ( 'NONE', 'WORKASPACE' ) );
#273 = CARTESIAN_POINT ( 'NONE',  ( 221.3840231336690700, 0.0000000000000000000, 12.69999999999999900 ) ) ;
#274 = CIRCLE ( 'NONE', #48, 79.79999999999999700 ) ;
#275 = CARTESIAN_POINT ( 'NONE',  ( 221.3840231336690700, 0.0000000000000000000, 0.0000000000000000000 ) ) ;
#276 = ORIENTED_EDGE ( 'NONE', *, *, #346, .F. ) ;
#277 = DIRECTION ( 'NONE',  ( 0.0000000000000000000, -1.000000000000000000, 0.0000000000000000000 ) ) ;
#278 = FILL_AREA_STYLE ('',( #92 ) ) ;
#279 = VERTEX_POINT ( 'NONE', #44 ) ;
#280 = DIRECTION ( 'NONE',  ( 0.0000000000000000000, 0.0000000000000000000, 1.000000000000000000 ) ) ;
#281 = CARTESIAN_POINT ( 'NONE',  ( -9.702612178336682500, 0.0000000000000000000, 0.0000000000000000000 ) ) ;
#282 = AXIS2_PLACEMENT_3D ( 'NONE', #310, #193, #39 ) ;
#283 = DIRECTION ( 'NONE',  ( 0.0000000000000000000, 0.0000000000000000000, 1.000000000000000000 ) ) ;
#284 =( NAMED_UNIT ( * ) SI_UNIT ( $, .STERADIAN. ) SOLID_ANGLE_UNIT ( ) );
#285 = CARTESIAN_POINT ( 'NONE',  ( -0.5519199926577972300, 0.0000000000000000000, 12.69999999999999900 ) ) ;
#286 = AXIS2_PLACEMENT_3D ( 'NONE', #337, #13, #97 ) ;
#287 = CIRCLE ( 'NONE', #203, 12.69999999999999900 ) ;
#288 = CARTESIAN_POINT ( 'NONE',  ( 221.3840231336690700, 0.0000000000000000000, 12.69999999999999900 ) ) ;
#289 = VERTEX_POINT ( 'NONE', #72 ) ;
#290 = ORIENTED_EDGE ( 'NONE', *, *, #46, .T. ) ;
#291 = EDGE_CURVE ( 'NONE', #150, #208, #237, .T. ) ;
#292 = MECHANICAL_DESIGN_GEOMETRIC_PRESENTATION_REPRESENTATION (  '', ( #196 ), #272 ) ;
#293 = EDGE_CURVE ( 'NONE', #206, #343, #107, .T. ) ;
#294 = DIRECTION ( 'NONE',  ( 0.0000000000000000000, -1.000000000000000000, 0.0000000000000000000 ) ) ;
#295 = LINE ( 'NONE', #216, #318 ) ;
#296 = ORIENTED_EDGE ( 'NONE', *, *, #70, .T. ) ;
#297 = ORIENTED_EDGE ( 'NONE', *, *, #28, .F. ) ;
#298 = CARTESIAN_POINT ( 'NONE',  ( -0.5519199926577972300, 1.555301434917138400E-015, -12.69999999999999900 ) ) ;
#299 = MECHANICAL_DESIGN_GEOMETRIC_PRESENTATION_REPRESENTATION (  '', ( #185 ), #226 ) ;
#300 = PRODUCT_DEFINITION_SHAPE ( 'NONE', 'NONE',  #190 ) ;
#301 = CIRCLE ( 'NONE', #338, 16.70000000000000600 ) ;
#302 = CARTESIAN_POINT ( 'NONE',  ( 149.4396697642883400, 0.0000000000000000000, 0.0000000000000000000 ) ) ;
#303 = AXIS2_PLACEMENT_3D ( 'NONE', #213, #37, #10 ) ;
#304 = CARTESIAN_POINT ( 'NONE',  ( 236.1396697642882400, 0.0000000000000000000, 5.094210746724349800E-016 ) ) ;
#305 = DIRECTION ( 'NONE',  ( 0.0000000000000000000, 0.0000000000000000000, 1.000000000000000000 ) ) ;
#306 = MECHANICAL_DESIGN_GEOMETRIC_PRESENTATION_REPRESENTATION (  '', ( #7 ), #105 ) ;
#307 = ORIENTED_EDGE ( 'NONE', *, *, #165, .F. ) ;
#308 = SURFACE_STYLE_USAGE ( .BOTH. , #117 ) ;
#309 = VERTEX_POINT ( 'NONE', #179 ) ;
#310 = CARTESIAN_POINT ( 'NONE',  ( 236.1396697642882400, 0.0000000000000000000, 5.094210746724349800E-016 ) ) ;
#311 = DIRECTION ( 'NONE',  ( -1.000000000000000000, -0.0000000000000000000, -0.0000000000000000000 ) ) ;
#312 = SPHERICAL_SURFACE ( 'NONE', #282, 20.89999999999999100 ) ;
#313 = ORIENTED_EDGE ( 'NONE', *, *, #89, .F. ) ;
#314 = DIRECTION ( 'NONE',  ( 0.0000000000000000000, 1.000000000000000000, 0.0000000000000000000 ) ) ;
#315 = LINE ( 'NONE', #258, #129 ) ;
#316 = AXIS2_PLACEMENT_3D ( 'NONE', #177, #314, #195 ) ;
#317 = DIRECTION ( 'NONE',  ( -1.000000000000000000, -0.0000000000000000000, -0.0000000000000000000 ) ) ;
#318 = VECTOR ( 'NONE', #248, 1000.000000000000000 ) ;
#319 = VERTEX_POINT ( 'NONE', #155 ) ;
#320 = DIRECTION ( 'NONE',  ( 0.0000000000000000000, 0.0000000000000000000, -1.000000000000000000 ) ) ;
#321 = FACE_OUTER_BOUND ( 'NONE', #232, .T. ) ;
#322 = AXIS2_PLACEMENT_3D ( 'NONE', #143, #335, #172 ) ;
#323 = CIRCLE ( 'NONE', #322, 12.69999999999999900 ) ;
#324 = AXIS2_PLACEMENT_3D ( 'NONE', #225, #69, #118 ) ;
#325 = DIRECTION ( 'NONE',  ( 0.0000000000000000000, 0.0000000000000000000, -1.000000000000000000 ) ) ;
#326 = DIRECTION ( 'NONE',  ( 0.0000000000000000000, 0.0000000000000000000, 1.000000000000000000 ) ) ;
#327 = UNCERTAINTY_MEASURE_WITH_UNIT (LENGTH_MEASURE( 1.000000000000000100E-005 ), #124, 'distance_accuracy_value', 'NONE');
#328 = DIRECTION ( 'NONE',  ( 0.0000000000000000000, -1.224646799147353200E-016, 1.000000000000000000 ) ) ;
#329 = AXIS2_PLACEMENT_3D ( 'NONE', #218, #250, #36 ) ;
#330 = DIRECTION ( 'NONE',  ( 0.0000000000000000000, 0.0000000000000000000, 1.000000000000000000 ) ) ;
#331 = SURFACE_SIDE_STYLE ('',( #211 ) ) ;
#332 = CARTESIAN_POINT ( 'NONE',  ( 210.5396697642883100, 0.0000000000000000000, 8.470329472543003400E-019 ) ) ;
#333 = ORIENTED_EDGE ( 'NONE', *, *, #52, .T. ) ;
#334 =( NAMED_UNIT ( * ) PLANE_ANGLE_UNIT ( ) SI_UNIT ( $, .RADIAN. ) );
#335 = DIRECTION ( 'NONE',  ( -1.000000000000000000, -0.0000000000000000000, -0.0000000000000000000 ) ) ;
#336 = ORIENTED_EDGE ( 'NONE', *, *, #135, .F. ) ;
#337 = CARTESIAN_POINT ( 'NONE',  ( 149.4396697642883400, 0.0000000000000000000, 0.0000000000000000000 ) ) ;
#338 = AXIS2_PLACEMENT_3D ( 'NONE', #186, #210, #29 ) ;
#339 = EDGE_CURVE ( 'NONE', #151, #343, #20, .T. ) ;
#340 = AXIS2_PLACEMENT_3D ( 'NONE', #1, #240, #271 ) ;
#341 =( LENGTH_UNIT ( ) NAMED_UNIT ( * ) SI_UNIT ( .MILLI., .METRE. ) );
#342 = DIRECTION ( 'NONE',  ( 0.0000000000000000000, -1.000000000000000000, -1.224646799147353200E-016 ) ) ;
#343 = VERTEX_POINT ( 'NONE', #288 ) ;
#344 = SPHERICAL_SURFACE ( 'NONE', #340, 16.70000000000000600 ) ;
#345 = CARTESIAN_POINT ( 'NONE',  ( 210.5396697642883100, 0.0000000000000000000, 8.470329472543003400E-019 ) ) ;
#346 = EDGE_CURVE ( 'NONE', #150, #26, #116, .T. ) ;
#347 = ORIENTED_EDGE ( 'NONE', *, *, #165, .T. ) ;
ENDSEC;
END-ISO-10303-21;
