ISO-10303-21;
HEADER;
FILE_DESCRIPTION (( 'STEP AP214' ),
    '1' );
FILE_NAME ('145087.STEP',
    '2019-05-21T12:28:18',
    ( '' ),
    ( '' ),
    'SwSTEP 2.0',
    'SolidWorks 2016',
    '' );
FILE_SCHEMA (( 'AUTOMOTIVE_DESIGN' ));
ENDSEC;

DATA;
#1 = ORIENTED_EDGE ( 'NONE', *, *, #285, .T. ) ;
#2 = DIRECTION ( 'NONE',  ( 0.0000000000000000000, -1.224646799147353200E-016, 1.000000000000000000 ) ) ;
#3 = DIRECTION ( 'NONE',  ( -1.000000000000000000, -0.0000000000000000000, -0.0000000000000000000 ) ) ;
#4 = ORIENTED_EDGE ( 'NONE', *, *, #141, .F. ) ;
#5 = DIRECTION ( 'NONE',  ( 0.0000000000000000000, 0.0000000000000000000, 1.000000000000000000 ) ) ;
#6 = CARTESIAN_POINT ( 'NONE',  ( 93.25746195421425000, 0.0000000000000000000, 0.0000000000000000000 ) ) ;
#7 = EDGE_CURVE ( 'NONE', #64, #172, #80, .T. ) ;
#8 = LINE ( 'NONE', #323, #130 ) ;
#9 = DIRECTION ( 'NONE',  ( -0.0000000000000000000, 1.000000000000000000, 1.224646799147353200E-016 ) ) ;
#10 = UNCERTAINTY_MEASURE_WITH_UNIT (LENGTH_MEASURE( 1.000000000000000100E-005 ), #324, 'distance_accuracy_value', 'NONE');
#11 = CARTESIAN_POINT ( 'NONE',  ( 409.1574619542142300, 0.0000000000000000000, 6.052748621522101400E-016 ) ) ;
#12 = ORIENTED_EDGE ( 'NONE', *, *, #79, .T. ) ;
#13 = SPHERICAL_SURFACE ( 'NONE', #328, 83.19999999999998900 ) ;
#14 = EDGE_CURVE ( 'NONE', #162, #251, #197, .T. ) ;
#15 = DIRECTION ( 'NONE',  ( 0.0000000000000000000, -1.224646799147353000E-016, 1.000000000000000000 ) ) ;
#16 = AXIS2_PLACEMENT_3D ( 'NONE', #11, #199, #41 ) ;
#17 = SPHERICAL_SURFACE ( 'NONE', #53, 247.6999999999999600 ) ;
#18 = ORIENTED_EDGE ( 'NONE', *, *, #175, .F. ) ;
#19 = COLOUR_RGB ( '',1.000000000000000000, 1.000000000000000000, 1.000000000000000000 ) ;
#20 = SURFACE_SIDE_STYLE ('',( #54 ) ) ;
#21 = EDGE_CURVE ( 'NONE', #64, #336, #8, .T. ) ;
#22 = ORIENTED_EDGE ( 'NONE', *, *, #299, .T. ) ;
#23 = SURFACE_STYLE_FILL_AREA ( #296 ) ;
#24 = DIRECTION ( 'NONE',  ( -1.000000000000000000, -0.0000000000000000000, -0.0000000000000000000 ) ) ;
#25 = ORIENTED_EDGE ( 'NONE', *, *, #52, .T. ) ;
#26 = DIRECTION ( 'NONE',  ( 0.0000000000000000000, 0.0000000000000000000, 1.000000000000000000 ) ) ;
#27 = SPHERICAL_SURFACE ( 'NONE', #191, 247.6999999999999600 ) ;
#28 = CYLINDRICAL_SURFACE ( 'NONE', #347, 25.40000000000003400 ) ;
#29 = DIRECTION ( 'NONE',  ( 0.0000000000000000000, 0.0000000000000000000, 1.000000000000000000 ) ) ;
#30 = EDGE_CURVE ( 'NONE', #205, #315, #55, .T. ) ;
#31 = DIRECTION ( 'NONE',  ( 0.0000000000000000000, 0.0000000000000000000, -1.000000000000000000 ) ) ;
#32 = DIRECTION ( 'NONE',  ( 0.0000000000000000000, 1.000000000000000000, 0.0000000000000000000 ) ) ;
#33 = AXIS2_PLACEMENT_3D ( 'NONE', #194, #143, #271 ) ;
#34 = PRODUCT ( '145087', '145087', '', ( #206 ) ) ;
#35 = DIRECTION ( 'NONE',  ( 0.0000000000000000000, 0.0000000000000000000, -1.000000000000000000 ) ) ;
#36 = ORIENTED_EDGE ( 'NONE', *, *, #141, .T. ) ;
#37 = DIRECTION ( 'NONE',  ( 0.0000000000000000000, 0.0000000000000000000, 1.000000000000000000 ) ) ;
#38 = CARTESIAN_POINT ( 'NONE',  ( 333.3352360728082400, 3.110602869834276900E-015, -25.39999999999999900 ) ) ;
#39 = VECTOR ( 'NONE', #321, 1000.000000000000000 ) ;
#40 = FACE_OUTER_BOUND ( 'NONE', #200, .T. ) ;
#41 = DIRECTION ( 'NONE',  ( 0.0000000000000000000, 0.0000000000000000000, -1.000000000000000000 ) ) ;
#42 = ORIENTED_EDGE ( 'NONE', *, *, #52, .F. ) ;
#43 = CARTESIAN_POINT ( 'NONE',  ( 124.5233095260452400, 0.0000000000000000000, 0.0000000000000000000 ) ) ;
#44 = EDGE_CURVE ( 'NONE', #295, #205, #334, .T. ) ;
#45 = CARTESIAN_POINT ( 'NONE',  ( 333.3352360728082400, 0.0000000000000000000, 0.0000000000000000000 ) ) ;
#46 = ADVANCED_FACE ( 'NONE', ( #114 ), #13, .T. ) ;
#47 = DIRECTION ( 'NONE',  ( -1.000000000000000000, -0.0000000000000000000, -0.0000000000000000000 ) ) ;
#48 = CIRCLE ( 'NONE', #125, 72.09999999999999400 ) ;
#49 = ORIENTED_EDGE ( 'NONE', *, *, #14, .F. ) ;
#50 = CIRCLE ( 'NONE', #179, 25.40000000000006300 ) ;
#51 = VERTEX_POINT ( 'NONE', #330 ) ;
#52 = EDGE_CURVE ( 'NONE', #256, #64, #105, .T. ) ;
#53 = AXIS2_PLACEMENT_3D ( 'NONE', #275, #119, #37 ) ;
#54 = SURFACE_STYLE_FILL_AREA ( #106 ) ;
#55 = CIRCLE ( 'NONE', #89, 83.19999999999998900 ) ;
#56 = LINE ( 'NONE', #303, #255 ) ;
#57 = CARTESIAN_POINT ( 'NONE',  ( 124.5233095260452400, 0.0000000000000000000, 0.0000000000000000000 ) ) ;
#58 = ORIENTED_EDGE ( 'NONE', *, *, #285, .F. ) ;
#59 = DIRECTION ( 'NONE',  ( 0.0000000000000000000, 1.224646799147353200E-016, -1.000000000000000000 ) ) ;
#60 = CARTESIAN_POINT ( 'NONE',  ( 339.6517191924867200, 0.0000000000000000000, 25.40000000000000600 ) ) ;
#61 = EDGE_CURVE ( 'NONE', #266, #336, #236, .T. ) ;
#62 = AXIS2_PLACEMENT_3D ( 'NONE', #257, #289, #182 ) ;
#63 = CARTESIAN_POINT ( 'NONE',  ( 265.8574619542142200, 0.0000000000000000000, 2.168404344971008900E-016 ) ) ;
#64 = VERTEX_POINT ( 'NONE', #60 ) ;
#65 = ORIENTED_EDGE ( 'NONE', *, *, #229, .F. ) ;
#66 = AXIS2_PLACEMENT_3D ( 'NONE', #262, #24, #112 ) ;
#67 = DIRECTION ( 'NONE',  ( 0.0000000000000000000, 1.000000000000000000, 0.0000000000000000000 ) ) ;
#68 = DIRECTION ( 'NONE',  ( 0.0000000000000000000, 0.0000000000000000000, 1.000000000000000000 ) ) ;
#69 = ADVANCED_FACE ( 'NONE', ( #306 ), #27, .T. ) ;
#70 = AXIS2_PLACEMENT_3D ( 'NONE', #57, #134, #164 ) ;
#71 = CARTESIAN_POINT ( 'NONE',  ( 329.9294366096431200, 0.0000000000000000000, 0.0000000000000000000 ) ) ;
#72 = EDGE_LOOP ( 'NONE', ( #196, #36, #241 ) ) ;
#73 = FACE_OUTER_BOUND ( 'NONE', #342, .T. ) ;
#74 = MANIFOLD_SOLID_BREP ( 'Ðý×ª1', #272 ) ;
#75 =( NAMED_UNIT ( * ) SI_UNIT ( $, .STERADIAN. ) SOLID_ANGLE_UNIT ( ) );
#76 = ORIENTED_EDGE ( 'NONE', *, *, #61, .T. ) ;
#77 =( NAMED_UNIT ( * ) SI_UNIT ( $, .STERADIAN. ) SOLID_ANGLE_UNIT ( ) );
#78 =( LENGTH_UNIT ( ) NAMED_UNIT ( * ) SI_UNIT ( .MILLI., .METRE. ) );
#79 = EDGE_CURVE ( 'NONE', #51, #295, #48, .T. ) ;
#80 = CIRCLE ( 'NONE', #66, 25.40000000000000600 ) ;
#81 = FACE_OUTER_BOUND ( 'NONE', #72, .T. ) ;
#82 = CARTESIAN_POINT ( 'NONE',  ( 409.1574619542142300, 0.0000000000000000000, 6.052748621522101400E-016 ) ) ;
#83 = CARTESIAN_POINT ( 'NONE',  ( 409.1574619542142300, 0.0000000000000000000, 6.052748621522101400E-016 ) ) ;
#84 = CARTESIAN_POINT ( 'NONE',  ( 333.3352360728082400, 3.110602869834284800E-015, -25.40000000000006300 ) ) ;
#85 = ORIENTED_EDGE ( 'NONE', *, *, #156, .T. ) ;
#86 = ADVANCED_BREP_SHAPE_REPRESENTATION ( '145087', ( #74, #136, #62 ), #117 ) ;
#87 = SURFACE_STYLE_FILL_AREA ( #298 ) ;
#88 = DIRECTION ( 'NONE',  ( -1.000000000000000000, -0.0000000000000000000, -0.0000000000000000000 ) ) ;
#89 = AXIS2_PLACEMENT_3D ( 'NONE', #82, #291, #120 ) ;
#90 = DIRECTION ( 'NONE',  ( 0.0000000000000000000, -1.000000000000000000, 0.0000000000000000000 ) ) ;
#91 = MECHANICAL_DESIGN_GEOMETRIC_PRESENTATION_REPRESENTATION (  '', ( #270 ), #167 ) ;
#92 = CYLINDRICAL_SURFACE ( 'NONE', #310, 25.39999999999999900 ) ;
#93 = CARTESIAN_POINT ( 'NONE',  ( 333.3352360728082400, 0.0000000000000000000, 0.0000000000000000000 ) ) ;
#94 = CARTESIAN_POINT ( 'NONE',  ( 333.3352360728082400, 0.0000000000000000000, 25.40000000000006300 ) ) ;
#95 = ORIENTED_EDGE ( 'NONE', *, *, #7, .F. ) ;
#96 = SPHERICAL_SURFACE ( 'NONE', #301, 72.09999999999999400 ) ;
#97 = CARTESIAN_POINT ( 'NONE',  ( 340.9574619542141800, 0.0000000000000000000, 1.516725060743996500E-014 ) ) ;
#98 = CARTESIAN_POINT ( 'NONE',  ( -0.5519199926577972300, 0.0000000000000000000, 0.0000000000000000000 ) ) ;
#99 = ORIENTED_EDGE ( 'NONE', *, *, #30, .F. ) ;
#100 = ADVANCED_FACE ( 'NONE', ( #319 ), #180, .T. ) ;
#101 = CIRCLE ( 'NONE', #142, 83.19999999999998900 ) ;
#102 = SURFACE_STYLE_USAGE ( .BOTH. , #20 ) ;
#103 = VERTEX_POINT ( 'NONE', #84 ) ;
#104 = EDGE_CURVE ( 'NONE', #251, #315, #101, .T. ) ;
#105 = CIRCLE ( 'NONE', #345, 247.6999999999999600 ) ;
#106 = FILL_AREA_STYLE ('',( #231 ) ) ;
#107 = AXIS2_PLACEMENT_3D ( 'NONE', #240, #90, #269 ) ;
#108 =( LENGTH_UNIT ( ) NAMED_UNIT ( * ) SI_UNIT ( .MILLI., .METRE. ) );
#109 = PRESENTATION_LAYER_ASSIGNMENT (  '', '', ( #243 ) ) ;
#110 = ORIENTED_EDGE ( 'NONE', *, *, #44, .F. ) ;
#111 = CARTESIAN_POINT ( 'NONE',  ( 124.5233095260452400, 3.110602869834276900E-015, -25.39999999999999900 ) ) ;
#112 = DIRECTION ( 'NONE',  ( 0.0000000000000000000, 0.0000000000000000000, 1.000000000000000000 ) ) ;
#113 =( NAMED_UNIT ( * ) PLANE_ANGLE_UNIT ( ) SI_UNIT ( $, .RADIAN. ) );
#114 = FACE_OUTER_BOUND ( 'NONE', #168, .T. ) ;
#115 = FACE_OUTER_BOUND ( 'NONE', #217, .T. ) ;
#116 = EDGE_LOOP ( 'NONE', ( #1, #320, #225, #49 ) ) ;
#117 =( GEOMETRIC_REPRESENTATION_CONTEXT ( 3 ) GLOBAL_UNCERTAINTY_ASSIGNED_CONTEXT ( ( #294 ) ) GLOBAL_UNIT_ASSIGNED_CONTEXT ( ( #108, #153, #75 ) ) REPRESENTATION_CONTEXT ( 'NONE', 'WORKASPACE' ) );
#118 = SPHERICAL_SURFACE ( 'NONE', #201, 72.09999999999999400 ) ;
#119 = DIRECTION ( 'NONE',  ( 0.0000000000000000000, 1.000000000000000000, 0.0000000000000000000 ) ) ;
#120 = DIRECTION ( 'NONE',  ( 0.0000000000000000000, 0.0000000000000000000, 1.000000000000000000 ) ) ;
#121 = DIRECTION ( 'NONE',  ( -1.000000000000000000, -0.0000000000000000000, -0.0000000000000000000 ) ) ;
#122 = FACE_OUTER_BOUND ( 'NONE', #124, .T. ) ;
#123 = CARTESIAN_POINT ( 'NONE',  ( 339.6517191924867200, 0.0000000000000000000, 0.0000000000000000000 ) ) ;
#124 = EDGE_LOOP ( 'NONE', ( #148, #85, #129 ) ) ;
#125 = AXIS2_PLACEMENT_3D ( 'NONE', #237, #327, #2 ) ;
#126 = DIRECTION ( 'NONE',  ( 0.0000000000000000000, 0.0000000000000000000, 1.000000000000000000 ) ) ;
#127 = AXIS2_PLACEMENT_3D ( 'NONE', #176, #221, #15 ) ;
#128 = ADVANCED_FACE ( 'NONE', ( #234 ), #118, .F. ) ;
#129 = ORIENTED_EDGE ( 'NONE', *, *, #30, .T. ) ;
#130 = VECTOR ( 'NONE', #261, 1000.000000000000000 ) ;
#131 = CIRCLE ( 'NONE', #224, 25.40000000000000600 ) ;
#132 = CARTESIAN_POINT ( 'NONE',  ( 409.1574619542142300, 0.0000000000000000000, 6.052748621522101400E-016 ) ) ;
#133 = CLOSED_SHELL ( 'NONE', ( #314, #151, #128, #226, #204, #69 ) ) ;
#134 = DIRECTION ( 'NONE',  ( -1.000000000000000000, -0.0000000000000000000, -0.0000000000000000000 ) ) ;
#135 = CIRCLE ( 'NONE', #186, 25.39999999999999900 ) ;
#136 = MANIFOLD_SOLID_BREP ( 'Ðý×ª3', #133 ) ;
#137 = SURFACE_STYLE_USAGE ( .BOTH. , #216 ) ;
#138 = CARTESIAN_POINT ( 'NONE',  ( 265.8574619542142200, 0.0000000000000000000, 2.168404344971008900E-016 ) ) ;
#139 = CARTESIAN_POINT ( 'NONE',  ( 93.25746195421425000, 0.0000000000000000000, 0.0000000000000000000 ) ) ;
#140 = CARTESIAN_POINT ( 'NONE',  ( 265.8574619542142200, 0.0000000000000000000, 2.168404344971008900E-016 ) ) ;
#141 = EDGE_CURVE ( 'NONE', #51, #162, #238, .T. ) ;
#142 = AXIS2_PLACEMENT_3D ( 'NONE', #83, #239, #59 ) ;
#143 = DIRECTION ( 'NONE',  ( 0.0000000000000000000, 1.000000000000000000, 0.0000000000000000000 ) ) ;
#144 = ORIENTED_EDGE ( 'NONE', *, *, #104, .T. ) ;
#145 = DIRECTION ( 'NONE',  ( -0.0000000000000000000, -1.000000000000000000, -0.0000000000000000000 ) ) ;
#146 = CYLINDRICAL_SURFACE ( 'NONE', #290, 25.40000000000003400 ) ;
#147 = CARTESIAN_POINT ( 'NONE',  ( 333.3352360728082400, 0.0000000000000000000, 0.0000000000000000000 ) ) ;
#148 = ORIENTED_EDGE ( 'NONE', *, *, #104, .F. ) ;
#149 = PRESENTATION_LAYER_ASSIGNMENT (  '', '', ( #270 ) ) ;
#150 = DIRECTION ( 'NONE',  ( -1.000000000000000000, -0.0000000000000000000, -0.0000000000000000000 ) ) ;
#151 = ADVANCED_FACE ( 'NONE', ( #210 ), #28, .T. ) ;
#152 = PRODUCT_RELATED_PRODUCT_CATEGORY ( 'part', '', ( #34 ) ) ;
#153 =( NAMED_UNIT ( * ) PLANE_ANGLE_UNIT ( ) SI_UNIT ( $, .RADIAN. ) );
#154 = ORIENTED_EDGE ( 'NONE', *, *, #242, .T. ) ;
#155 =( LENGTH_UNIT ( ) NAMED_UNIT ( * ) SI_UNIT ( .MILLI., .METRE. ) );
#156 = EDGE_CURVE ( 'NONE', #251, #205, #326, .T. ) ;
#157 = MECHANICAL_DESIGN_GEOMETRIC_PRESENTATION_REPRESENTATION (  '', ( #243 ), #208 ) ;
#158 = ORIENTED_EDGE ( 'NONE', *, *, #309, .F. ) ;
#159 = DIRECTION ( 'NONE',  ( 0.0000000000000000000, 0.0000000000000000000, -1.000000000000000000 ) ) ;
#160 = DIRECTION ( 'NONE',  ( -1.000000000000000000, -0.0000000000000000000, -0.0000000000000000000 ) ) ;
#161 = FILL_AREA_STYLE_COLOUR ( '', #171 ) ;
#162 = VERTEX_POINT ( 'NONE', #280 ) ;
#163 = PRESENTATION_STYLE_ASSIGNMENT (( #137 ) ) ;
#164 = DIRECTION ( 'NONE',  ( 0.0000000000000000000, 0.0000000000000000000, 1.000000000000000000 ) ) ;
#165 = FILL_AREA_STYLE_COLOUR ( '', #19 ) ;
#166 = DIRECTION ( 'NONE',  ( 0.0000000000000000000, 0.0000000000000000000, 1.000000000000000000 ) ) ;
#167 =( GEOMETRIC_REPRESENTATION_CONTEXT ( 3 ) GLOBAL_UNCERTAINTY_ASSIGNED_CONTEXT ( ( #308 ) ) GLOBAL_UNIT_ASSIGNED_CONTEXT ( ( #155, #228, #77 ) ) REPRESENTATION_CONTEXT ( 'NONE', 'WORKASPACE' ) );
#168 = EDGE_LOOP ( 'NONE', ( #329, #144, #99 ) ) ;
#169 = PRODUCT_DEFINITION_FORMATION_WITH_SPECIFIED_SOURCE ( 'ÈÎºÎ', '', #34, .NOT_KNOWN. ) ;
#170 = DIRECTION ( 'NONE',  ( -1.000000000000000000, -0.0000000000000000000, -0.0000000000000000000 ) ) ;
#171 = COLOUR_RGB ( '',1.000000000000000000, 1.000000000000000000, 1.000000000000000000 ) ;
#172 = VERTEX_POINT ( 'NONE', #177 ) ;
#173 = CARTESIAN_POINT ( 'NONE',  ( 325.9574619542142400, 0.0000000000000000000, -4.489255822300778200E-015 ) ) ;
#174 = EDGE_LOOP ( 'NONE', ( #65, #25, #233 ) ) ;
#175 = EDGE_CURVE ( 'NONE', #205, #251, #335, .T. ) ;
#176 = CARTESIAN_POINT ( 'NONE',  ( 93.25746195421425000, 0.0000000000000000000, 0.0000000000000000000 ) ) ;
#177 = CARTESIAN_POINT ( 'NONE',  ( 339.6517191924867200, 3.110602869834279600E-015, -25.40000000000000600 ) ) ;
#178 = DIRECTION ( 'NONE',  ( 0.0000000000000000000, 0.0000000000000000000, 1.000000000000000000 ) ) ;
#179 = AXIS2_PLACEMENT_3D ( 'NONE', #213, #88, #26 ) ;
#180 = CYLINDRICAL_SURFACE ( 'NONE', #70, 25.39999999999999900 ) ;
#181 = ORIENTED_EDGE ( 'NONE', *, *, #267, .F. ) ;
#182 = DIRECTION ( 'NONE',  ( 1.000000000000000000, 0.0000000000000000000, 0.0000000000000000000 ) ) ;
#183 = CIRCLE ( 'NONE', #253, 25.39999999999999900 ) ;
#184 = ORIENTED_EDGE ( 'NONE', *, *, #229, .T. ) ;
#185 = APPLICATION_CONTEXT ( 'automotive_design' ) ;
#186 = AXIS2_PLACEMENT_3D ( 'NONE', #93, #195, #305 ) ;
#187 = SURFACE_STYLE_USAGE ( .BOTH. , #268 ) ;
#188 = DIRECTION ( 'NONE',  ( 0.0000000000000000000, 0.0000000000000000000, 1.000000000000000000 ) ) ;
#189 =( NAMED_UNIT ( * ) PLANE_ANGLE_UNIT ( ) SI_UNIT ( $, .RADIAN. ) );
#190 = EDGE_LOOP ( 'NONE', ( #158, #22, #325, #235 ) ) ;
#191 = AXIS2_PLACEMENT_3D ( 'NONE', #6, #32, #5 ) ;
#192 = DIRECTION ( 'NONE',  ( 0.0000000000000000000, -1.000000000000000000, 0.0000000000000000000 ) ) ;
#193 = AXIS2_PLACEMENT_3D ( 'NONE', #140, #322, #159 ) ;
#194 = CARTESIAN_POINT ( 'NONE',  ( 265.8574619542142200, 0.0000000000000000000, 2.168404344971008900E-016 ) ) ;
#195 = DIRECTION ( 'NONE',  ( -1.000000000000000000, -0.0000000000000000000, -0.0000000000000000000 ) ) ;
#196 = ORIENTED_EDGE ( 'NONE', *, *, #79, .F. ) ;
#197 = LINE ( 'NONE', #211, #273 ) ;
#198 = CIRCLE ( 'NONE', #232, 72.09999999999999400 ) ;
#199 = DIRECTION ( 'NONE',  ( -0.0000000000000000000, -1.000000000000000000, -0.0000000000000000000 ) ) ;
#200 = EDGE_LOOP ( 'NONE', ( #42, #184, #95 ) ) ;
#201 = AXIS2_PLACEMENT_3D ( 'NONE', #138, #297, #188 ) ;
#202 = DIRECTION ( 'NONE',  ( 0.0000000000000000000, 0.0000000000000000000, 1.000000000000000000 ) ) ;
#203 = CARTESIAN_POINT ( 'NONE',  ( 265.8574619542142200, 0.0000000000000000000, 2.168404344971008900E-016 ) ) ;
#204 = ADVANCED_FACE ( 'NONE', ( #284 ), #146, .T. ) ;
#205 = VERTEX_POINT ( 'NONE', #338 ) ;
#206 = PRODUCT_CONTEXT ( 'NONE', #286, 'mechanical' ) ;
#207 = STYLED_ITEM ( 'NONE', ( #163 ), #74 ) ;
#208 =( GEOMETRIC_REPRESENTATION_CONTEXT ( 3 ) GLOBAL_UNCERTAINTY_ASSIGNED_CONTEXT ( ( #10 ) ) GLOBAL_UNIT_ASSIGNED_CONTEXT ( ( #324, #113, #264 ) ) REPRESENTATION_CONTEXT ( 'NONE', 'WORKASPACE' ) );
#209 = ORIENTED_EDGE ( 'NONE', *, *, #21, .F. ) ;
#210 = FACE_OUTER_BOUND ( 'NONE', #246, .T. ) ;
#211 = CARTESIAN_POINT ( 'NONE',  ( 124.5233095260452400, 0.0000000000000000000, 25.39999999999999900 ) ) ;
#212 = EDGE_LOOP ( 'NONE', ( #4, #12, #58 ) ) ;
#213 = CARTESIAN_POINT ( 'NONE',  ( 333.3352360728082400, 0.0000000000000000000, 0.0000000000000000000 ) ) ;
#214 = AXIS2_PLACEMENT_3D ( 'NONE', #45, #222, #68 ) ;
#215 = CARTESIAN_POINT ( 'NONE',  ( 337.9574619542142400, 0.0000000000000000000, 4.631692145423308800E-015 ) ) ;
#216 = SURFACE_SIDE_STYLE ('',( #87 ) ) ;
#217 = EDGE_LOOP ( 'NONE', ( #110, #317, #313, #18 ) ) ;
#218 = PRODUCT_DEFINITION_CONTEXT ( 'detailed design', #185, 'design' ) ;
#219 = DIRECTION ( 'NONE',  ( 0.0000000000000000000, 1.000000000000000000, 0.0000000000000000000 ) ) ;
#220 = PRESENTATION_LAYER_ASSIGNMENT (  '', '', ( #207 ) ) ;
#221 = DIRECTION ( 'NONE',  ( -0.0000000000000000000, 1.000000000000000000, 1.224646799147353200E-016 ) ) ;
#222 = DIRECTION ( 'NONE',  ( -1.000000000000000000, -0.0000000000000000000, -0.0000000000000000000 ) ) ;
#223 = ADVANCED_FACE ( 'NONE', ( #249 ), #230, .T. ) ;
#224 = AXIS2_PLACEMENT_3D ( 'NONE', #123, #170, #247 ) ;
#225 = ORIENTED_EDGE ( 'NONE', *, *, #156, .F. ) ;
#226 = ADVANCED_FACE ( 'NONE', ( #73 ), #96, .F. ) ;
#227 = ORIENTED_EDGE ( 'NONE', *, *, #267, .T. ) ;
#228 =( NAMED_UNIT ( * ) PLANE_ANGLE_UNIT ( ) SI_UNIT ( $, .RADIAN. ) );
#229 = EDGE_CURVE ( 'NONE', #256, #172, #307, .T. ) ;
#230 = SPHERICAL_SURFACE ( 'NONE', #331, 72.09999999999999400 ) ;
#231 = FILL_AREA_STYLE_COLOUR ( '', #339 ) ;
#232 = AXIS2_PLACEMENT_3D ( 'NONE', #63, #9, #332 ) ;
#233 = ORIENTED_EDGE ( 'NONE', *, *, #299, .F. ) ;
#234 = FACE_OUTER_BOUND ( 'NONE', #287, .T. ) ;
#235 = ORIENTED_EDGE ( 'NONE', *, *, #242, .F. ) ;
#236 = CIRCLE ( 'NONE', #107, 72.09999999999999400 ) ;
#237 = CARTESIAN_POINT ( 'NONE',  ( 265.8574619542142200, 0.0000000000000000000, 2.168404344971008900E-016 ) ) ;
#238 = CIRCLE ( 'NONE', #193, 72.09999999999999400 ) ;
#239 = DIRECTION ( 'NONE',  ( 0.0000000000000000000, -1.000000000000000000, -1.224646799147353200E-016 ) ) ;
#240 = CARTESIAN_POINT ( 'NONE',  ( 265.8574619542142200, 0.0000000000000000000, 2.168404344971008900E-016 ) ) ;
#241 = ORIENTED_EDGE ( 'NONE', *, *, #288, .F. ) ;
#242 = EDGE_CURVE ( 'NONE', #103, #336, #274, .T. ) ;
#243 = STYLED_ITEM ( 'NONE', ( #245 ), #136 ) ;
#244 = DIRECTION ( 'NONE',  ( 0.0000000000000000000, 0.0000000000000000000, 1.000000000000000000 ) ) ;
#245 = PRESENTATION_STYLE_ASSIGNMENT (( #187 ) ) ;
#246 = EDGE_LOOP ( 'NONE', ( #344, #304, #333, #209 ) ) ;
#247 = DIRECTION ( 'NONE',  ( 0.0000000000000000000, 0.0000000000000000000, 1.000000000000000000 ) ) ;
#248 = DIRECTION ( 'NONE',  ( -1.000000000000000000, -0.0000000000000000000, -0.0000000000000000000 ) ) ;
#249 = FACE_OUTER_BOUND ( 'NONE', #212, .T. ) ;
#250 = EDGE_CURVE ( 'NONE', #336, #103, #50, .T. ) ;
#251 = VERTEX_POINT ( 'NONE', #252 ) ;
#252 = CARTESIAN_POINT ( 'NONE',  ( 329.9294366096431200, -3.110602869834277700E-015, 25.40000000000000600 ) ) ;
#253 = AXIS2_PLACEMENT_3D ( 'NONE', #147, #248, #244 ) ;
#254 = CARTESIAN_POINT ( 'NONE',  ( 329.9294366096431200, 0.0000000000000000000, 0.0000000000000000000 ) ) ;
#255 = VECTOR ( 'NONE', #302, 1000.000000000000000 ) ;
#256 = VERTEX_POINT ( 'NONE', #97 ) ;
#257 = CARTESIAN_POINT ( 'NONE',  ( 0.0000000000000000000, 0.0000000000000000000, 0.0000000000000000000 ) ) ;
#258 = MECHANICAL_DESIGN_GEOMETRIC_PRESENTATION_REPRESENTATION (  '', ( #207 ), #278 ) ;
#259 = PRODUCT_DEFINITION ( 'Î´Öª', '', #169, #218 ) ;
#260 = AXIS2_PLACEMENT_3D ( 'NONE', #254, #312, #337 ) ;
#261 = DIRECTION ( 'NONE',  ( -1.000000000000000000, -0.0000000000000000000, -0.0000000000000000000 ) ) ;
#262 = CARTESIAN_POINT ( 'NONE',  ( 339.6517191924867200, 0.0000000000000000000, 0.0000000000000000000 ) ) ;
#263 = SPHERICAL_SURFACE ( 'NONE', #33, 72.09999999999999400 ) ;
#264 =( NAMED_UNIT ( * ) SI_UNIT ( $, .STERADIAN. ) SOLID_ANGLE_UNIT ( ) );
#265 = CARTESIAN_POINT ( 'NONE',  ( -0.5519199926577972300, 0.0000000000000000000, 0.0000000000000000000 ) ) ;
#266 = VERTEX_POINT ( 'NONE', #215 ) ;
#267 = EDGE_CURVE ( 'NONE', #266, #103, #198, .T. ) ;
#268 = SURFACE_SIDE_STYLE ('',( #23 ) ) ;
#269 = DIRECTION ( 'NONE',  ( 0.0000000000000000000, 0.0000000000000000000, -1.000000000000000000 ) ) ;
#270 = STYLED_ITEM ( 'NONE', ( #292 ), #86 ) ;
#271 = DIRECTION ( 'NONE',  ( 0.0000000000000000000, 0.0000000000000000000, 1.000000000000000000 ) ) ;
#272 = CLOSED_SHELL ( 'NONE', ( #223, #100, #46, #311, #341, #283 ) ) ;
#273 = VECTOR ( 'NONE', #160, 1000.000000000000000 ) ;
#274 = CIRCLE ( 'NONE', #214, 25.40000000000006300 ) ;
#275 = CARTESIAN_POINT ( 'NONE',  ( 93.25746195421425000, 0.0000000000000000000, 0.0000000000000000000 ) ) ;
#276 = UNCERTAINTY_MEASURE_WITH_UNIT (LENGTH_MEASURE( 1.000000000000000100E-005 ), #78, 'distance_accuracy_value', 'NONE');
#277 = PRODUCT_DEFINITION_SHAPE ( 'NONE', 'NONE',  #259 ) ;
#278 =( GEOMETRIC_REPRESENTATION_CONTEXT ( 3 ) GLOBAL_UNCERTAINTY_ASSIGNED_CONTEXT ( ( #276 ) ) GLOBAL_UNIT_ASSIGNED_CONTEXT ( ( #78, #189, #293 ) ) REPRESENTATION_CONTEXT ( 'NONE', 'WORKASPACE' ) );
#279 = DIRECTION ( 'NONE',  ( 0.0000000000000000000, 0.0000000000000000000, 1.000000000000000000 ) ) ;
#280 = CARTESIAN_POINT ( 'NONE',  ( 333.3352360728082400, 0.0000000000000000000, 25.39999999999999900 ) ) ;
#281 = AXIS2_PLACEMENT_3D ( 'NONE', #71, #150, #178 ) ;
#282 = ORIENTED_EDGE ( 'NONE', *, *, #250, .T. ) ;
#283 = ADVANCED_FACE ( 'NONE', ( #81 ), #263, .T. ) ;
#284 = FACE_OUTER_BOUND ( 'NONE', #190, .T. ) ;
#285 = EDGE_CURVE ( 'NONE', #162, #295, #183, .T. ) ;
#286 = APPLICATION_CONTEXT ( 'automotive_design' ) ;
#287 = EDGE_LOOP ( 'NONE', ( #300, #227, #154 ) ) ;
#288 = EDGE_CURVE ( 'NONE', #295, #162, #135, .T. ) ;
#289 = DIRECTION ( 'NONE',  ( 0.0000000000000000000, 0.0000000000000000000, 1.000000000000000000 ) ) ;
#290 = AXIS2_PLACEMENT_3D ( 'NONE', #98, #47, #279 ) ;
#291 = DIRECTION ( 'NONE',  ( 0.0000000000000000000, 1.000000000000000000, -0.0000000000000000000 ) ) ;
#292 = PRESENTATION_STYLE_ASSIGNMENT (( #102 ) ) ;
#293 =( NAMED_UNIT ( * ) SI_UNIT ( $, .STERADIAN. ) SOLID_ANGLE_UNIT ( ) );
#294 = UNCERTAINTY_MEASURE_WITH_UNIT (LENGTH_MEASURE( 1.000000000000000100E-005 ), #108, 'distance_accuracy_value', 'NONE');
#295 = VERTEX_POINT ( 'NONE', #38 ) ;
#296 = FILL_AREA_STYLE ('',( #161 ) ) ;
#297 = DIRECTION ( 'NONE',  ( 0.0000000000000000000, 1.000000000000000000, 0.0000000000000000000 ) ) ;
#298 = FILL_AREA_STYLE ('',( #165 ) ) ;
#299 = EDGE_CURVE ( 'NONE', #172, #64, #131, .T. ) ;
#300 = ORIENTED_EDGE ( 'NONE', *, *, #61, .F. ) ;
#301 = AXIS2_PLACEMENT_3D ( 'NONE', #203, #67, #202 ) ;
#302 = DIRECTION ( 'NONE',  ( -1.000000000000000000, -0.0000000000000000000, -0.0000000000000000000 ) ) ;
#303 = CARTESIAN_POINT ( 'NONE',  ( -0.5519199926577972300, 3.110602869834281200E-015, -25.40000000000003400 ) ) ;
#304 = ORIENTED_EDGE ( 'NONE', *, *, #309, .T. ) ;
#305 = DIRECTION ( 'NONE',  ( 0.0000000000000000000, 0.0000000000000000000, 1.000000000000000000 ) ) ;
#306 = FACE_OUTER_BOUND ( 'NONE', #174, .T. ) ;
#307 = CIRCLE ( 'NONE', #127, 247.6999999999999600 ) ;
#308 = UNCERTAINTY_MEASURE_WITH_UNIT (LENGTH_MEASURE( 1.000000000000000100E-005 ), #155, 'distance_accuracy_value', 'NONE');
#309 = EDGE_CURVE ( 'NONE', #172, #103, #56, .T. ) ;
#310 = AXIS2_PLACEMENT_3D ( 'NONE', #43, #121, #166 ) ;
#311 = ADVANCED_FACE ( 'NONE', ( #122 ), #343, .T. ) ;
#312 = DIRECTION ( 'NONE',  ( -1.000000000000000000, -0.0000000000000000000, -0.0000000000000000000 ) ) ;
#313 = ORIENTED_EDGE ( 'NONE', *, *, #14, .T. ) ;
#314 = ADVANCED_FACE ( 'NONE', ( #40 ), #17, .T. ) ;
#315 = VERTEX_POINT ( 'NONE', #173 ) ;
#316 = APPLICATION_PROTOCOL_DEFINITION ( 'draft international standard', 'automotive_design', 1998, #185 ) ;
#317 = ORIENTED_EDGE ( 'NONE', *, *, #288, .T. ) ;
#318 = SHAPE_DEFINITION_REPRESENTATION ( #277, #86 ) ;
#319 = FACE_OUTER_BOUND ( 'NONE', #116, .T. ) ;
#320 = ORIENTED_EDGE ( 'NONE', *, *, #44, .T. ) ;
#321 = DIRECTION ( 'NONE',  ( -1.000000000000000000, -0.0000000000000000000, -0.0000000000000000000 ) ) ;
#322 = DIRECTION ( 'NONE',  ( 0.0000000000000000000, -1.000000000000000000, 0.0000000000000000000 ) ) ;
#323 = CARTESIAN_POINT ( 'NONE',  ( -0.5519199926577972300, 0.0000000000000000000, 25.40000000000003400 ) ) ;
#324 =( LENGTH_UNIT ( ) NAMED_UNIT ( * ) SI_UNIT ( .MILLI., .METRE. ) );
#325 = ORIENTED_EDGE ( 'NONE', *, *, #21, .T. ) ;
#326 = CIRCLE ( 'NONE', #260, 25.39999999999999900 ) ;
#327 = DIRECTION ( 'NONE',  ( -0.0000000000000000000, 1.000000000000000000, 1.224646799147353200E-016 ) ) ;
#328 = AXIS2_PLACEMENT_3D ( 'NONE', #132, #145, #35 ) ;
#329 = ORIENTED_EDGE ( 'NONE', *, *, #175, .T. ) ;
#330 = CARTESIAN_POINT ( 'NONE',  ( 337.9574619542142400, 0.0000000000000000000, 4.631692145423308800E-015 ) ) ;
#331 = AXIS2_PLACEMENT_3D ( 'NONE', #340, #219, #126 ) ;
#332 = DIRECTION ( 'NONE',  ( 0.0000000000000000000, -1.224646799147353200E-016, 1.000000000000000000 ) ) ;
#333 = ORIENTED_EDGE ( 'NONE', *, *, #250, .F. ) ;
#334 = LINE ( 'NONE', #111, #39 ) ;
#335 = CIRCLE ( 'NONE', #281, 25.39999999999999900 ) ;
#336 = VERTEX_POINT ( 'NONE', #94 ) ;
#337 = DIRECTION ( 'NONE',  ( 0.0000000000000000000, 0.0000000000000000000, 1.000000000000000000 ) ) ;
#338 = CARTESIAN_POINT ( 'NONE',  ( 329.9294366096431200, 0.0000000000000000000, -25.40000000000000600 ) ) ;
#339 = COLOUR_RGB ( '',1.000000000000000000, 1.000000000000000000, 1.000000000000000000 ) ;
#340 = CARTESIAN_POINT ( 'NONE',  ( 265.8574619542142200, 0.0000000000000000000, 2.168404344971008900E-016 ) ) ;
#341 = ADVANCED_FACE ( 'NONE', ( #115 ), #92, .T. ) ;
#342 = EDGE_LOOP ( 'NONE', ( #181, #76, #282 ) ) ;
#343 = SPHERICAL_SURFACE ( 'NONE', #16, 83.19999999999998900 ) ;
#344 = ORIENTED_EDGE ( 'NONE', *, *, #7, .T. ) ;
#345 = AXIS2_PLACEMENT_3D ( 'NONE', #139, #192, #31 ) ;
#346 = APPLICATION_PROTOCOL_DEFINITION ( 'draft international standard', 'automotive_design', 1998, #286 ) ;
#347 = AXIS2_PLACEMENT_3D ( 'NONE', #265, #3, #29 ) ;
ENDSEC;
END-ISO-10303-21;
