ISO-10303-21;
HEADER;
FILE_DESCRIPTION (( 'STEP AP214' ),
    '1' );
FILE_NAME ('145094.STEP',
    '2019-05-25T12:38:43',
    ( '' ),
    ( '' ),
    'SwSTEP 2.0',
    'SolidWorks 2016',
    '' );
FILE_SCHEMA (( 'AUTOMOTIVE_DESIGN' ));
ENDSEC;

DATA;
#1 = AXIS2_PLACEMENT_3D ( 'NONE', #81, #22, #162 ) ;
#2 = ADVANCED_FACE ( 'NONE', ( #255 ), #184, .F. ) ;
#3 =( NAMED_UNIT ( * ) PLANE_ANGLE_UNIT ( ) SI_UNIT ( $, .RADIAN. ) );
#4 = ORIENTED_EDGE ( 'NONE', *, *, #251, .T. ) ;
#5 = SPHERICAL_SURFACE ( 'NONE', #128, 417.8000000000000100 ) ;
#6 = EDGE_CURVE ( 'NONE', #163, #193, #234, .T. ) ;
#7 = CARTESIAN_POINT ( 'NONE',  ( 257.6217824430913800, 0.0000000000000000000, 2.168404344971008900E-016 ) ) ;
#8 = ORIENTED_EDGE ( 'NONE', *, *, #13, .F. ) ;
#9 = SURFACE_STYLE_FILL_AREA ( #160 ) ;
#10 = DIRECTION ( 'NONE',  ( -1.000000000000000000, -0.0000000000000000000, -0.0000000000000000000 ) ) ;
#11 = EDGE_LOOP ( 'NONE', ( #23, #208, #34 ) ) ;
#12 = CIRCLE ( 'NONE', #1, 1330.500000000000000 ) ;
#13 = EDGE_CURVE ( 'NONE', #265, #297, #167, .T. ) ;
#14 = DIRECTION ( 'NONE',  ( 0.0000000000000000000, 1.000000000000000000, 0.0000000000000000000 ) ) ;
#15 = UNCERTAINTY_MEASURE_WITH_UNIT (LENGTH_MEASURE( 1.000000000000000100E-005 ), #134, 'distance_accuracy_value', 'NONE');
#16 = DIRECTION ( 'NONE',  ( 0.0000000000000000000, 1.000000000000000000, 0.0000000000000000000 ) ) ;
#17 = CARTESIAN_POINT ( 'NONE',  ( 1006.921782443091400, 0.0000000000000000000, -8.158825211694848100E-013 ) ) ;
#18 = DIRECTION ( 'NONE',  ( -0.0000000000000000000, 1.000000000000000000, 1.224646799147353200E-016 ) ) ;
#19 = ADVANCED_FACE ( 'NONE', ( #252 ), #261, .T. ) ;
#20 = DIRECTION ( 'NONE',  ( 0.0000000000000000000, 0.0000000000000000000, 1.000000000000000000 ) ) ;
#21 = DIRECTION ( 'NONE',  ( 0.0000000000000000000, 0.0000000000000000000, 1.000000000000000000 ) ) ;
#22 = DIRECTION ( 'NONE',  ( 0.0000000000000000000, -1.000000000000000000, 0.0000000000000000000 ) ) ;
#23 = ORIENTED_EDGE ( 'NONE', *, *, #240, .F. ) ;
#24 = SPHERICAL_SURFACE ( 'NONE', #151, 335.9999999999999400 ) ;
#25 = DIRECTION ( 'NONE',  ( 0.0000000000000000000, 1.000000000000000000, 0.0000000000000000000 ) ) ;
#26 = PRODUCT_DEFINITION_SHAPE ( 'NONE', 'NONE',  #120 ) ;
#27 =( GEOMETRIC_REPRESENTATION_CONTEXT ( 3 ) GLOBAL_UNCERTAINTY_ASSIGNED_CONTEXT ( ( #129 ) ) GLOBAL_UNIT_ASSIGNED_CONTEXT ( ( #122, #99, #146 ) ) REPRESENTATION_CONTEXT ( 'NONE', 'WORKASPACE' ) );
#28 = ADVANCED_FACE ( 'NONE', ( #322 ), #180, .T. ) ;
#29 = ADVANCED_FACE ( 'NONE', ( #37 ), #314, .T. ) ;
#30 = ORIENTED_EDGE ( 'NONE', *, *, #298, .F. ) ;
#31 = DIRECTION ( 'NONE',  ( 0.0000000000000000000, 0.0000000000000000000, 1.000000000000000000 ) ) ;
#32 =( GEOMETRIC_REPRESENTATION_CONTEXT ( 3 ) GLOBAL_UNCERTAINTY_ASSIGNED_CONTEXT ( ( #80 ) ) GLOBAL_UNIT_ASSIGNED_CONTEXT ( ( #216, #137, #190 ) ) REPRESENTATION_CONTEXT ( 'NONE', 'WORKASPACE' ) );
#33 = MANIFOLD_SOLID_BREP ( 'Ðý×ª1', #78 ) ;
#34 = ORIENTED_EDGE ( 'NONE', *, *, #219, .F. ) ;
#35 = CYLINDRICAL_SURFACE ( 'NONE', #273, 25.39999999999905000 ) ;
#36 = PRESENTATION_LAYER_ASSIGNMENT (  '', '', ( #277 ) ) ;
#37 = FACE_OUTER_BOUND ( 'NONE', #332, .T. ) ;
#38 = ORIENTED_EDGE ( 'NONE', *, *, #240, .T. ) ;
#39 = CARTESIAN_POINT ( 'NONE',  ( 257.6217824430913800, 0.0000000000000000000, 2.168404344971008900E-016 ) ) ;
#40 = DIRECTION ( 'NONE',  ( -1.000000000000000000, -0.0000000000000000000, -0.0000000000000000000 ) ) ;
#41 = ORIENTED_EDGE ( 'NONE', *, *, #147, .F. ) ;
#42 = EDGE_LOOP ( 'NONE', ( #209, #4, #8, #41 ) ) ;
#43 = CIRCLE ( 'NONE', #324, 1330.500000000000000 ) ;
#44 = AXIS2_PLACEMENT_3D ( 'NONE', #75, #177, #72 ) ;
#45 = DIRECTION ( 'NONE',  ( 0.0000000000000000000, 0.0000000000000000000, 1.000000000000000000 ) ) ;
#46 = ORIENTED_EDGE ( 'NONE', *, *, #344, .F. ) ;
#47 = EDGE_CURVE ( 'NONE', #136, #118, #195, .T. ) ;
#48 = CARTESIAN_POINT ( 'NONE',  ( 257.6217824430913800, 0.0000000000000000000, 2.168404344971008900E-016 ) ) ;
#49 = DIRECTION ( 'NONE',  ( -0.0000000000000000000, 1.000000000000000000, 1.224646799147353200E-016 ) ) ;
#50 = DIRECTION ( 'NONE',  ( 0.0000000000000000000, 0.0000000000000000000, 1.000000000000000000 ) ) ;
#51 = ORIENTED_EDGE ( 'NONE', *, *, #154, .F. ) ;
#52 = ORIENTED_EDGE ( 'NONE', *, *, #77, .T. ) ;
#53 = FACE_OUTER_BOUND ( 'NONE', #313, .T. ) ;
#54 = MECHANICAL_DESIGN_GEOMETRIC_PRESENTATION_REPRESENTATION (  '', ( #85 ), #32 ) ;
#55 = CARTESIAN_POINT ( 'NONE',  ( 1006.921782443091400, 0.0000000000000000000, -8.158825211694848100E-013 ) ) ;
#56 = AXIS2_PLACEMENT_3D ( 'NONE', #174, #307, #144 ) ;
#57 = DIRECTION ( 'NONE',  ( -1.000000000000000000, -0.0000000000000000000, -0.0000000000000000000 ) ) ;
#58 = ADVANCED_FACE ( 'NONE', ( #127 ), #124, .T. ) ;
#59 = CIRCLE ( 'NONE', #259, 25.39999999999914200 ) ;
#60 = SURFACE_SIDE_STYLE ('',( #110 ) ) ;
#61 = DIRECTION ( 'NONE',  ( 1.000000000000000000, 0.0000000000000000000, 0.0000000000000000000 ) ) ;
#62 = EDGE_CURVE ( 'NONE', #118, #136, #270, .T. ) ;
#63 = ORIENTED_EDGE ( 'NONE', *, *, #298, .T. ) ;
#64 = PRESENTATION_STYLE_ASSIGNMENT (( #289 ) ) ;
#65 = COLOUR_RGB ( '',1.000000000000000000, 1.000000000000000000, 1.000000000000000000 ) ;
#66 = EDGE_CURVE ( 'NONE', #136, #131, #346, .T. ) ;
#67 = DIRECTION ( 'NONE',  ( 0.0000000000000000000, 0.0000000000000000000, 1.000000000000000000 ) ) ;
#68 = ORIENTED_EDGE ( 'NONE', *, *, #321, .T. ) ;
#69 = VECTOR ( 'NONE', #206, 1000.000000000000000 ) ;
#70 = DIRECTION ( 'NONE',  ( 0.0000000000000000000, 1.000000000000000000, 0.0000000000000000000 ) ) ;
#71 = PRODUCT_RELATED_PRODUCT_CATEGORY ( 'part', '', ( #231 ) ) ;
#72 = DIRECTION ( 'NONE',  ( 0.0000000000000000000, 0.0000000000000000000, 1.000000000000000000 ) ) ;
#73 = AXIS2_PLACEMENT_3D ( 'NONE', #39, #70, #67 ) ;
#74 = VERTEX_POINT ( 'NONE', #283 ) ;
#75 = CARTESIAN_POINT ( 'NONE',  ( 589.8945890851522300, 0.0000000000000000000, 0.0000000000000000000 ) ) ;
#76 = DIRECTION ( 'NONE',  ( 0.0000000000000000000, 0.0000000000000000000, -1.000000000000000000 ) ) ;
#77 = EDGE_CURVE ( 'NONE', #118, #131, #218, .T. ) ;
#78 = CLOSED_SHELL ( 'NONE', ( #28, #19, #238, #271, #135, #161 ) ) ;
#79 = DIRECTION ( 'NONE',  ( 0.0000000000000000000, -1.224646799147353200E-016, 1.000000000000000000 ) ) ;
#80 = UNCERTAINTY_MEASURE_WITH_UNIT (LENGTH_MEASURE( 1.000000000000000100E-005 ), #216, 'distance_accuracy_value', 'NONE');
#81 = CARTESIAN_POINT ( 'NONE',  ( -734.8782175569087900, 0.0000000000000000000, 0.0000000000000000000 ) ) ;
#82 = DIRECTION ( 'NONE',  ( 0.0000000000000000000, 0.0000000000000000000, 1.000000000000000000 ) ) ;
#83 = CARTESIAN_POINT ( 'NONE',  ( 592.6603473874870400, 0.0000000000000000000, 0.0000000000000000000 ) ) ;
#84 = FACE_OUTER_BOUND ( 'NONE', #287, .T. ) ;
#85 = STYLED_ITEM ( 'NONE', ( #312 ), #93 ) ;
#86 = DIRECTION ( 'NONE',  ( -0.0000000000000000000, 1.000000000000000000, 1.224646799147353200E-016 ) ) ;
#87 = DIRECTION ( 'NONE',  ( 0.0000000000000000000, -1.000000000000000000, 0.0000000000000000000 ) ) ;
#88 = SURFACE_STYLE_USAGE ( .BOTH. , #60 ) ;
#89 = PRODUCT_CONTEXT ( 'NONE', #268, 'mechanical' ) ;
#90 = CYLINDRICAL_SURFACE ( 'NONE', #101, 25.39999999999964000 ) ;
#91 = ORIENTED_EDGE ( 'NONE', *, *, #92, .F. ) ;
#92 = EDGE_CURVE ( 'NONE', #74, #136, #98, .T. ) ;
#93 = ADVANCED_BREP_SHAPE_REPRESENTATION ( '145094', ( #33, #168, #141 ), #170 ) ;
#94 = SHAPE_DEFINITION_REPRESENTATION ( #26, #93 ) ;
#95 = CARTESIAN_POINT ( 'NONE',  ( 257.6217824430913800, 0.0000000000000000000, 2.168404344971008900E-016 ) ) ;
#96 = SURFACE_STYLE_FILL_AREA ( #334 ) ;
#97 = AXIS2_PLACEMENT_3D ( 'NONE', #183, #204, #230 ) ;
#98 = LINE ( 'NONE', #155, #194 ) ;
#99 =( NAMED_UNIT ( * ) PLANE_ANGLE_UNIT ( ) SI_UNIT ( $, .RADIAN. ) );
#100 = CARTESIAN_POINT ( 'NONE',  ( 257.6217824430913800, 0.0000000000000000000, 2.168404344971008900E-016 ) ) ;
#101 = AXIS2_PLACEMENT_3D ( 'NONE', #149, #282, #235 ) ;
#102 = DIRECTION ( 'NONE',  ( -1.000000000000000000, -0.0000000000000000000, -0.0000000000000000000 ) ) ;
#103 = CARTESIAN_POINT ( 'NONE',  ( 592.6603473874870400, 0.0000000000000000000, 0.0000000000000000000 ) ) ;
#104 = EDGE_CURVE ( 'NONE', #193, #74, #329, .T. ) ;
#105 = ORIENTED_EDGE ( 'NONE', *, *, #219, .T. ) ;
#106 = ORIENTED_EDGE ( 'NONE', *, *, #6, .F. ) ;
#107 = ADVANCED_FACE ( 'NONE', ( #84 ), #309, .F. ) ;
#108 = DIRECTION ( 'NONE',  ( 0.0000000000000000000, 0.0000000000000000000, 1.000000000000000000 ) ) ;
#109 = SURFACE_SIDE_STYLE ('',( #9 ) ) ;
#110 = SURFACE_STYLE_FILL_AREA ( #295 ) ;
#111 = CARTESIAN_POINT ( 'NONE',  ( 595.3793101421455300, 0.0000000000000000000, 25.39999999999895100 ) ) ;
#112 = CARTESIAN_POINT ( 'NONE',  ( 124.5233095260452400, 0.0000000000000000000, 25.39999999999964000 ) ) ;
#113 = FILL_AREA_STYLE_COLOUR ( '', #166 ) ;
#114 = ORIENTED_EDGE ( 'NONE', *, *, #138, .T. ) ;
#115 = PRODUCT_DEFINITION_FORMATION_WITH_SPECIFIED_SOURCE ( 'ÈÎºÎ', '', #231, .NOT_KNOWN. ) ;
#116 = ORIENTED_EDGE ( 'NONE', *, *, #251, .F. ) ;
#117 = EDGE_LOOP ( 'NONE', ( #30, #181, #269 ) ) ;
#118 = VERTEX_POINT ( 'NONE', #232 ) ;
#119 = LINE ( 'NONE', #133, #176 ) ;
#120 = PRODUCT_DEFINITION ( 'Î´Öª', '', #115, #254 ) ;
#121 = EDGE_LOOP ( 'NONE', ( #143, #63, #51 ) ) ;
#122 =( LENGTH_UNIT ( ) NAMED_UNIT ( * ) SI_UNIT ( .MILLI., .METRE. ) );
#123 = ORIENTED_EDGE ( 'NONE', *, *, #328, .T. ) ;
#124 = SPHERICAL_SURFACE ( 'NONE', #285, 1330.500000000000000 ) ;
#125 = DIRECTION ( 'NONE',  ( 0.0000000000000000000, 1.000000000000000000, 0.0000000000000000000 ) ) ;
#126 = DIRECTION ( 'NONE',  ( -1.000000000000000000, -0.0000000000000000000, -0.0000000000000000000 ) ) ;
#127 = FACE_OUTER_BOUND ( 'NONE', #121, .T. ) ;
#128 = AXIS2_PLACEMENT_3D ( 'NONE', #237, #342, #50 ) ;
#129 = UNCERTAINTY_MEASURE_WITH_UNIT (LENGTH_MEASURE( 1.000000000000000100E-005 ), #122, 'distance_accuracy_value', 'NONE');
#130 = FILL_AREA_STYLE_COLOUR ( '', #65 ) ;
#131 = VERTEX_POINT ( 'NONE', #308 ) ;
#132 = ORIENTED_EDGE ( 'NONE', *, *, #223, .F. ) ;
#133 = CARTESIAN_POINT ( 'NONE',  ( -0.5519199926577972300, 3.110602869834160900E-015, -25.39999999999905000 ) ) ;
#134 =( LENGTH_UNIT ( ) NAMED_UNIT ( * ) SI_UNIT ( .MILLI., .METRE. ) );
#135 = ADVANCED_FACE ( 'NONE', ( #53 ), #90, .T. ) ;
#136 = VERTEX_POINT ( 'NONE', #336 ) ;
#137 =( NAMED_UNIT ( * ) PLANE_ANGLE_UNIT ( ) SI_UNIT ( $, .RADIAN. ) );
#138 = EDGE_CURVE ( 'NONE', #228, #297, #213, .T. ) ;
#139 = ORIENTED_EDGE ( 'NONE', *, *, #47, .T. ) ;
#140 = ORIENTED_EDGE ( 'NONE', *, *, #62, .T. ) ;
#141 = AXIS2_PLACEMENT_3D ( 'NONE', #246, #31, #61 ) ;
#142 = CARTESIAN_POINT ( 'NONE',  ( -0.5519199926577972300, 0.0000000000000000000, 0.0000000000000000000 ) ) ;
#143 = ORIENTED_EDGE ( 'NONE', *, *, #199, .F. ) ;
#144 = DIRECTION ( 'NONE',  ( 0.0000000000000000000, 0.0000000000000000000, 1.000000000000000000 ) ) ;
#145 = AXIS2_PLACEMENT_3D ( 'NONE', #253, #40, #225 ) ;
#146 =( NAMED_UNIT ( * ) SI_UNIT ( $, .STERADIAN. ) SOLID_ANGLE_UNIT ( ) );
#147 = EDGE_CURVE ( 'NONE', #248, #265, #337, .T. ) ;
#148 = DIRECTION ( 'NONE',  ( -1.000000000000000000, -0.0000000000000000000, -0.0000000000000000000 ) ) ;
#149 = CARTESIAN_POINT ( 'NONE',  ( 124.5233095260452400, 0.0000000000000000000, 0.0000000000000000000 ) ) ;
#150 = CIRCLE ( 'NONE', #341, 335.9999999999998900 ) ;
#151 = AXIS2_PLACEMENT_3D ( 'NONE', #100, #125, #20 ) ;
#152 = DIRECTION ( 'NONE',  ( 0.0000000000000000000, 0.0000000000000000000, 1.000000000000000000 ) ) ;
#153 = DIRECTION ( 'NONE',  ( -1.000000000000000000, -0.0000000000000000000, -0.0000000000000000000 ) ) ;
#154 = EDGE_CURVE ( 'NONE', #248, #315, #317, .T. ) ;
#155 = CARTESIAN_POINT ( 'NONE',  ( 124.5233095260452400, 3.110602869834232700E-015, -25.39999999999964000 ) ) ;
#156 = ADVANCED_FACE ( 'NONE', ( #327 ), #35, .T. ) ;
#157 = COLOUR_RGB ( '',1.000000000000000000, 1.000000000000000000, 1.000000000000000000 ) ;
#158 = CARTESIAN_POINT ( 'NONE',  ( 595.3793101421455300, 3.110602869834155000E-015, -25.39999999999895100 ) ) ;
#159 =( NAMED_UNIT ( * ) PLANE_ANGLE_UNIT ( ) SI_UNIT ( $, .RADIAN. ) );
#160 = FILL_AREA_STYLE ('',( #130 ) ) ;
#161 = ADVANCED_FACE ( 'NONE', ( #302 ), #24, .T. ) ;
#162 = DIRECTION ( 'NONE',  ( 0.0000000000000000000, 0.0000000000000000000, -1.000000000000000000 ) ) ;
#163 = VERTEX_POINT ( 'NONE', #205 ) ;
#164 =( LENGTH_UNIT ( ) NAMED_UNIT ( * ) SI_UNIT ( .MILLI., .METRE. ) );
#165 = PRESENTATION_LAYER_ASSIGNMENT (  '', '', ( #306 ) ) ;
#166 = COLOUR_RGB ( '',1.000000000000000000, 1.000000000000000000, 1.000000000000000000 ) ;
#167 = CIRCLE ( 'NONE', #145, 25.39999999999914200 ) ;
#168 = MANIFOLD_SOLID_BREP ( 'Ðý×ª3', #291 ) ;
#169 = ORIENTED_EDGE ( 'NONE', *, *, #92, .T. ) ;
#170 =( GEOMETRIC_REPRESENTATION_CONTEXT ( 3 ) GLOBAL_UNCERTAINTY_ASSIGNED_CONTEXT ( ( #300 ) ) GLOBAL_UNIT_ASSIGNED_CONTEXT ( ( #164, #3, #293 ) ) REPRESENTATION_CONTEXT ( 'NONE', 'WORKASPACE' ) );
#171 = ORIENTED_EDGE ( 'NONE', *, *, #62, .F. ) ;
#172 = AXIS2_PLACEMENT_3D ( 'NONE', #95, #256, #175 ) ;
#173 = ORIENTED_EDGE ( 'NONE', *, *, #321, .F. ) ;
#174 = CARTESIAN_POINT ( 'NONE',  ( 124.5233095260452400, 0.0000000000000000000, 0.0000000000000000000 ) ) ;
#175 = DIRECTION ( 'NONE',  ( 0.0000000000000000000, 0.0000000000000000000, 1.000000000000000000 ) ) ;
#176 = VECTOR ( 'NONE', #343, 1000.000000000000000 ) ;
#177 = DIRECTION ( 'NONE',  ( -1.000000000000000000, -0.0000000000000000000, -0.0000000000000000000 ) ) ;
#178 = CARTESIAN_POINT ( 'NONE',  ( 1006.921782443091400, 0.0000000000000000000, -8.158825211694848100E-013 ) ) ;
#179 = DIRECTION ( 'NONE',  ( 0.0000000000000000000, -1.224646799147353000E-016, 1.000000000000000000 ) ) ;
#180 = SPHERICAL_SURFACE ( 'NONE', #172, 335.9999999999999400 ) ;
#181 = ORIENTED_EDGE ( 'NONE', *, *, #199, .T. ) ;
#182 = AXIS2_PLACEMENT_3D ( 'NONE', #260, #16, #311 ) ;
#183 = CARTESIAN_POINT ( 'NONE',  ( 589.8945890851522300, 0.0000000000000000000, 0.0000000000000000000 ) ) ;
#184 = SPHERICAL_SURFACE ( 'NONE', #73, 335.9999999999998900 ) ;
#185 = CIRCLE ( 'NONE', #319, 335.9999999999999400 ) ;
#186 = DIRECTION ( 'NONE',  ( 0.0000000000000000000, 0.0000000000000000000, 1.000000000000000000 ) ) ;
#187 = MECHANICAL_DESIGN_GEOMETRIC_PRESENTATION_REPRESENTATION (  '', ( #277 ), #27 ) ;
#188 = DIRECTION ( 'NONE',  ( -1.000000000000000000, -0.0000000000000000000, -0.0000000000000000000 ) ) ;
#189 = EDGE_LOOP ( 'NONE', ( #140, #305, #192 ) ) ;
#190 =( NAMED_UNIT ( * ) SI_UNIT ( $, .STERADIAN. ) SOLID_ANGLE_UNIT ( ) );
#191 = AXIS2_PLACEMENT_3D ( 'NONE', #7, #276, #222 ) ;
#192 = ORIENTED_EDGE ( 'NONE', *, *, #77, .F. ) ;
#193 = VERTEX_POINT ( 'NONE', #345 ) ;
#194 = VECTOR ( 'NONE', #102, 1000.000000000000000 ) ;
#195 = CIRCLE ( 'NONE', #97, 25.39999999999964300 ) ;
#196 = PRESENTATION_LAYER_ASSIGNMENT (  '', '', ( #85 ) ) ;
#197 = SURFACE_STYLE_USAGE ( .BOTH. , #257 ) ;
#198 = ORIENTED_EDGE ( 'NONE', *, *, #66, .F. ) ;
#199 = EDGE_CURVE ( 'NONE', #274, #248, #12, .T. ) ;
#200 = DIRECTION ( 'NONE',  ( 0.0000000000000000000, 0.0000000000000000000, 1.000000000000000000 ) ) ;
#201 = DIRECTION ( 'NONE',  ( -0.0000000000000000000, 1.000000000000000000, 1.224646799147353200E-016 ) ) ;
#202 = FACE_OUTER_BOUND ( 'NONE', #117, .T. ) ;
#203 = AXIS2_PLACEMENT_3D ( 'NONE', #178, #201, #179 ) ;
#204 = DIRECTION ( 'NONE',  ( -1.000000000000000000, -0.0000000000000000000, -0.0000000000000000000 ) ) ;
#205 = CARTESIAN_POINT ( 'NONE',  ( 593.6217824430914300, 0.0000000000000000000, 2.079090666017263100E-014 ) ) ;
#206 = DIRECTION ( 'NONE',  ( -1.000000000000000000, -0.0000000000000000000, -0.0000000000000000000 ) ) ;
#207 =( NAMED_UNIT ( * ) SI_UNIT ( $, .STERADIAN. ) SOLID_ANGLE_UNIT ( ) );
#208 = ORIENTED_EDGE ( 'NONE', *, *, #6, .T. ) ;
#209 = ORIENTED_EDGE ( 'NONE', *, *, #154, .T. ) ;
#210 = VECTOR ( 'NONE', #57, 1000.000000000000000 ) ;
#211 = DIRECTION ( 'NONE',  ( -1.000000000000000000, -0.0000000000000000000, -0.0000000000000000000 ) ) ;
#212 = DIRECTION ( 'NONE',  ( -1.000000000000000000, -0.0000000000000000000, -0.0000000000000000000 ) ) ;
#213 = CIRCLE ( 'NONE', #250, 335.9999999999998900 ) ;
#214 = CARTESIAN_POINT ( 'NONE',  ( -734.8782175569087900, 0.0000000000000000000, 0.0000000000000000000 ) ) ;
#215 = APPLICATION_PROTOCOL_DEFINITION ( 'draft international standard', 'automotive_design', 1998, #268 ) ;
#216 =( LENGTH_UNIT ( ) NAMED_UNIT ( * ) SI_UNIT ( .MILLI., .METRE. ) );
#217 = ORIENTED_EDGE ( 'NONE', *, *, #223, .T. ) ;
#218 = CIRCLE ( 'NONE', #221, 417.8000000000000100 ) ;
#219 = EDGE_CURVE ( 'NONE', #74, #193, #292, .T. ) ;
#220 = CIRCLE ( 'NONE', #294, 25.39999999999895100 ) ;
#221 = AXIS2_PLACEMENT_3D ( 'NONE', #17, #229, #76 ) ;
#222 = DIRECTION ( 'NONE',  ( 0.0000000000000000000, 0.0000000000000000000, -1.000000000000000000 ) ) ;
#223 = EDGE_CURVE ( 'NONE', #297, #265, #59, .T. ) ;
#224 = ORIENTED_EDGE ( 'NONE', *, *, #104, .T. ) ;
#225 = DIRECTION ( 'NONE',  ( 0.0000000000000000000, 0.0000000000000000000, 1.000000000000000000 ) ) ;
#226 = FILL_AREA_STYLE_COLOUR ( '', #157 ) ;
#227 = AXIS2_PLACEMENT_3D ( 'NONE', #83, #212, #21 ) ;
#228 = VERTEX_POINT ( 'NONE', #241 ) ;
#229 = DIRECTION ( 'NONE',  ( 0.0000000000000000000, -1.000000000000000000, 0.0000000000000000000 ) ) ;
#230 = DIRECTION ( 'NONE',  ( 0.0000000000000000000, 0.0000000000000000000, 1.000000000000000000 ) ) ;
#231 = PRODUCT ( '145094', '145094', '', ( #89 ) ) ;
#232 = CARTESIAN_POINT ( 'NONE',  ( 589.8945890851521200, 0.0000000000000000000, 25.39999999999974300 ) ) ;
#233 = EDGE_LOOP ( 'NONE', ( #224, #169, #171, #173 ) ) ;
#234 = CIRCLE ( 'NONE', #191, 335.9999999999999400 ) ;
#235 = DIRECTION ( 'NONE',  ( 0.0000000000000000000, 0.0000000000000000000, 1.000000000000000000 ) ) ;
#236 = AXIS2_PLACEMENT_3D ( 'NONE', #142, #148, #331 ) ;
#237 = CARTESIAN_POINT ( 'NONE',  ( 1006.921782443091400, 0.0000000000000000000, -8.158825211694848100E-013 ) ) ;
#238 = ADVANCED_FACE ( 'NONE', ( #249 ), #5, .T. ) ;
#239 = EDGE_LOOP ( 'NONE', ( #106, #38, #339 ) ) ;
#240 = EDGE_CURVE ( 'NONE', #163, #74, #185, .T. ) ;
#241 = CARTESIAN_POINT ( 'NONE',  ( 593.6217824430913200, 0.0000000000000000000, 2.079090666017262800E-014 ) ) ;
#242 = AXIS2_PLACEMENT_3D ( 'NONE', #103, #126, #152 ) ;
#243 = DIRECTION ( 'NONE',  ( 0.0000000000000000000, 0.0000000000000000000, 1.000000000000000000 ) ) ;
#244 = ORIENTED_EDGE ( 'NONE', *, *, #344, .T. ) ;
#245 = ORIENTED_EDGE ( 'NONE', *, *, #47, .F. ) ;
#246 = CARTESIAN_POINT ( 'NONE',  ( 0.0000000000000000000, 0.0000000000000000000, 0.0000000000000000000 ) ) ;
#247 = APPLICATION_CONTEXT ( 'automotive_design' ) ;
#248 = VERTEX_POINT ( 'NONE', #111 ) ;
#249 = FACE_OUTER_BOUND ( 'NONE', #189, .T. ) ;
#250 = AXIS2_PLACEMENT_3D ( 'NONE', #48, #18, #263 ) ;
#251 = EDGE_CURVE ( 'NONE', #315, #297, #119, .T. ) ;
#252 = FACE_OUTER_BOUND ( 'NONE', #233, .T. ) ;
#253 = CARTESIAN_POINT ( 'NONE',  ( 592.6603473874869200, 0.0000000000000000000, 0.0000000000000000000 ) ) ;
#254 = PRODUCT_DEFINITION_CONTEXT ( 'detailed design', #247, 'design' ) ;
#255 = FACE_OUTER_BOUND ( 'NONE', #325, .T. ) ;
#256 = DIRECTION ( 'NONE',  ( 0.0000000000000000000, 1.000000000000000000, 0.0000000000000000000 ) ) ;
#257 = SURFACE_SIDE_STYLE ('',( #96 ) ) ;
#258 = CARTESIAN_POINT ( 'NONE',  ( -0.5519199926577972300, 0.0000000000000000000, 0.0000000000000000000 ) ) ;
#259 = AXIS2_PLACEMENT_3D ( 'NONE', #320, #211, #186 ) ;
#260 = CARTESIAN_POINT ( 'NONE',  ( 257.6217824430913800, 0.0000000000000000000, 2.168404344971008900E-016 ) ) ;
#261 = CYLINDRICAL_SURFACE ( 'NONE', #56, 25.39999999999964000 ) ;
#262 = SPHERICAL_SURFACE ( 'NONE', #303, 417.8000000000000100 ) ;
#263 = DIRECTION ( 'NONE',  ( 0.0000000000000000000, -1.224646799147353200E-016, 1.000000000000000000 ) ) ;
#264 = CARTESIAN_POINT ( 'NONE',  ( -0.5519199926577972300, 0.0000000000000000000, 25.39999999999905000 ) ) ;
#265 = VERTEX_POINT ( 'NONE', #267 ) ;
#266 = FACE_OUTER_BOUND ( 'NONE', #278, .T. ) ;
#267 = CARTESIAN_POINT ( 'NONE',  ( 592.6603473874869200, 0.0000000000000000000, 25.39999999999907800 ) ) ;
#268 = APPLICATION_CONTEXT ( 'automotive_design' ) ;
#269 = ORIENTED_EDGE ( 'NONE', *, *, #328, .F. ) ;
#270 = CIRCLE ( 'NONE', #44, 25.39999999999964300 ) ;
#271 = ADVANCED_FACE ( 'NONE', ( #266 ), #262, .T. ) ;
#272 = CARTESIAN_POINT ( 'NONE',  ( 595.3793101421455300, 0.0000000000000000000, 0.0000000000000000000 ) ) ;
#273 = AXIS2_PLACEMENT_3D ( 'NONE', #258, #153, #280 ) ;
#274 = VERTEX_POINT ( 'NONE', #288 ) ;
#275 = AXIS2_PLACEMENT_3D ( 'NONE', #214, #340, #82 ) ;
#276 = DIRECTION ( 'NONE',  ( 0.0000000000000000000, -1.000000000000000000, 0.0000000000000000000 ) ) ;
#277 = STYLED_ITEM ( 'NONE', ( #304 ), #33 ) ;
#278 = EDGE_LOOP ( 'NONE', ( #198, #139, #52 ) ) ;
#279 = LINE ( 'NONE', #112, #210 ) ;
#280 = DIRECTION ( 'NONE',  ( 0.0000000000000000000, 0.0000000000000000000, 1.000000000000000000 ) ) ;
#281 =( GEOMETRIC_REPRESENTATION_CONTEXT ( 3 ) GLOBAL_UNCERTAINTY_ASSIGNED_CONTEXT ( ( #15 ) ) GLOBAL_UNIT_ASSIGNED_CONTEXT ( ( #134, #159, #207 ) ) REPRESENTATION_CONTEXT ( 'NONE', 'WORKASPACE' ) );
#282 = DIRECTION ( 'NONE',  ( -1.000000000000000000, -0.0000000000000000000, -0.0000000000000000000 ) ) ;
#283 = CARTESIAN_POINT ( 'NONE',  ( 592.6603473874870400, 3.110602869834232300E-015, -25.39999999999963600 ) ) ;
#284 = ADVANCED_FACE ( 'NONE', ( #202 ), #333, .T. ) ;
#285 = AXIS2_PLACEMENT_3D ( 'NONE', #310, #14, #45 ) ;
#286 = DIRECTION ( 'NONE',  ( 0.0000000000000000000, -1.224646799147353200E-016, 1.000000000000000000 ) ) ;
#287 = EDGE_LOOP ( 'NONE', ( #301, #244, #316 ) ) ;
#288 = CARTESIAN_POINT ( 'NONE',  ( 595.6217824430913200, 0.0000000000000000000, 8.146962831327766500E-014 ) ) ;
#289 = SURFACE_STYLE_USAGE ( .BOTH. , #109 ) ;
#290 = CARTESIAN_POINT ( 'NONE',  ( 257.6217824430913800, 0.0000000000000000000, 2.168404344971008900E-016 ) ) ;
#291 = CLOSED_SHELL ( 'NONE', ( #58, #156, #2, #107, #29, #284 ) ) ;
#292 = CIRCLE ( 'NONE', #227, 25.39999999999963600 ) ;
#293 =( NAMED_UNIT ( * ) SI_UNIT ( $, .STERADIAN. ) SOLID_ANGLE_UNIT ( ) );
#294 = AXIS2_PLACEMENT_3D ( 'NONE', #272, #188, #243 ) ;
#295 = FILL_AREA_STYLE ('',( #113 ) ) ;
#296 = APPLICATION_PROTOCOL_DEFINITION ( 'draft international standard', 'automotive_design', 1998, #247 ) ;
#297 = VERTEX_POINT ( 'NONE', #318 ) ;
#298 = EDGE_CURVE ( 'NONE', #274, #315, #43, .T. ) ;
#299 = ORIENTED_EDGE ( 'NONE', *, *, #147, .T. ) ;
#300 = UNCERTAINTY_MEASURE_WITH_UNIT (LENGTH_MEASURE( 1.000000000000000100E-005 ), #164, 'distance_accuracy_value', 'NONE');
#301 = ORIENTED_EDGE ( 'NONE', *, *, #138, .F. ) ;
#302 = FACE_OUTER_BOUND ( 'NONE', #11, .T. ) ;
#303 = AXIS2_PLACEMENT_3D ( 'NONE', #55, #25, #108 ) ;
#304 = PRESENTATION_STYLE_ASSIGNMENT (( #197 ) ) ;
#305 = ORIENTED_EDGE ( 'NONE', *, *, #66, .T. ) ;
#306 = STYLED_ITEM ( 'NONE', ( #64 ), #168 ) ;
#307 = DIRECTION ( 'NONE',  ( -1.000000000000000000, -0.0000000000000000000, -0.0000000000000000000 ) ) ;
#308 = CARTESIAN_POINT ( 'NONE',  ( 589.1217824430914300, 0.0000000000000000000, -7.902996495352966300E-013 ) ) ;
#309 = SPHERICAL_SURFACE ( 'NONE', #182, 335.9999999999998900 ) ;
#310 = CARTESIAN_POINT ( 'NONE',  ( -734.8782175569087900, 0.0000000000000000000, 0.0000000000000000000 ) ) ;
#311 = DIRECTION ( 'NONE',  ( 0.0000000000000000000, 0.0000000000000000000, 1.000000000000000000 ) ) ;
#312 = PRESENTATION_STYLE_ASSIGNMENT (( #88 ) ) ;
#313 = EDGE_LOOP ( 'NONE', ( #91, #105, #68, #245 ) ) ;
#314 = CYLINDRICAL_SURFACE ( 'NONE', #236, 25.39999999999905000 ) ;
#315 = VERTEX_POINT ( 'NONE', #158 ) ;
#316 = ORIENTED_EDGE ( 'NONE', *, *, #13, .T. ) ;
#317 = CIRCLE ( 'NONE', #326, 25.39999999999895100 ) ;
#318 = CARTESIAN_POINT ( 'NONE',  ( 592.6603473874869200, 3.110602869834164500E-015, -25.39999999999907800 ) ) ;
#319 = AXIS2_PLACEMENT_3D ( 'NONE', #290, #86, #286 ) ;
#320 = CARTESIAN_POINT ( 'NONE',  ( 592.6603473874869200, 0.0000000000000000000, 0.0000000000000000000 ) ) ;
#321 = EDGE_CURVE ( 'NONE', #193, #118, #279, .T. ) ;
#322 = FACE_OUTER_BOUND ( 'NONE', #239, .T. ) ;
#323 = DIRECTION ( 'NONE',  ( 0.0000000000000000000, 0.0000000000000000000, -1.000000000000000000 ) ) ;
#324 = AXIS2_PLACEMENT_3D ( 'NONE', #338, #49, #79 ) ;
#325 = EDGE_LOOP ( 'NONE', ( #46, #114, #217 ) ) ;
#326 = AXIS2_PLACEMENT_3D ( 'NONE', #335, #10, #200 ) ;
#327 = FACE_OUTER_BOUND ( 'NONE', #42, .T. ) ;
#328 = EDGE_CURVE ( 'NONE', #315, #248, #220, .T. ) ;
#329 = CIRCLE ( 'NONE', #242, 25.39999999999963600 ) ;
#330 = MECHANICAL_DESIGN_GEOMETRIC_PRESENTATION_REPRESENTATION (  '', ( #306 ), #281 ) ;
#331 = DIRECTION ( 'NONE',  ( 0.0000000000000000000, 0.0000000000000000000, 1.000000000000000000 ) ) ;
#332 = EDGE_LOOP ( 'NONE', ( #116, #123, #299, #132 ) ) ;
#333 = SPHERICAL_SURFACE ( 'NONE', #275, 1330.500000000000000 ) ;
#334 = FILL_AREA_STYLE ('',( #226 ) ) ;
#335 = CARTESIAN_POINT ( 'NONE',  ( 595.3793101421455300, 0.0000000000000000000, 0.0000000000000000000 ) ) ;
#336 = CARTESIAN_POINT ( 'NONE',  ( 589.8945890851521200, 3.110602869834245700E-015, -25.40000000000055600 ) ) ;
#337 = LINE ( 'NONE', #264, #69 ) ;
#338 = CARTESIAN_POINT ( 'NONE',  ( -734.8782175569087900, 0.0000000000000000000, 0.0000000000000000000 ) ) ;
#339 = ORIENTED_EDGE ( 'NONE', *, *, #104, .F. ) ;
#340 = DIRECTION ( 'NONE',  ( 0.0000000000000000000, 1.000000000000000000, 0.0000000000000000000 ) ) ;
#341 = AXIS2_PLACEMENT_3D ( 'NONE', #347, #87, #323 ) ;
#342 = DIRECTION ( 'NONE',  ( 0.0000000000000000000, 1.000000000000000000, 0.0000000000000000000 ) ) ;
#343 = DIRECTION ( 'NONE',  ( -1.000000000000000000, -0.0000000000000000000, -0.0000000000000000000 ) ) ;
#344 = EDGE_CURVE ( 'NONE', #228, #265, #150, .T. ) ;
#345 = CARTESIAN_POINT ( 'NONE',  ( 592.6603473874870400, 0.0000000000000000000, 25.39999999999963600 ) ) ;
#346 = CIRCLE ( 'NONE', #203, 417.8000000000000100 ) ;
#347 = CARTESIAN_POINT ( 'NONE',  ( 257.6217824430913800, 0.0000000000000000000, 2.168404344971008900E-016 ) ) ;
ENDSEC;
END-ISO-10303-21;
