ISO-10303-21;
HEADER;
FILE_DESCRIPTION (( 'STEP AP214' ),
    '1' );
FILE_NAME ('145132.STEP',
    '2019-06-04T06:30:24',
    ( 'user' ),
    ( 'Î¢ÈíÖÐ¹ú' ),
    'SwSTEP 2.0',
    'SolidWorks 2016',
    '' );
FILE_SCHEMA (( 'AUTOMOTIVE_DESIGN' ));
ENDSEC;

DATA;
#1 = ORIENTED_EDGE ( 'NONE', *, *, #269, .T. ) ;
#2 = SPHERICAL_SURFACE ( 'NONE', #187, 557.4000000000000900 ) ;
#3 = SPHERICAL_SURFACE ( 'NONE', #302, 557.3999999999998600 ) ;
#4 =( NAMED_UNIT ( * ) SI_UNIT ( $, .STERADIAN. ) SOLID_ANGLE_UNIT ( ) );
#5 = DIRECTION ( 'NONE',  ( 0.0000000000000000000, 0.0000000000000000000, 1.000000000000000000 ) ) ;
#6 = FACE_OUTER_BOUND ( 'NONE', #76, .T. ) ;
#7 = COLOUR_RGB ( '',1.000000000000000000, 1.000000000000000000, 1.000000000000000000 ) ;
#8 = EDGE_CURVE ( 'NONE', #247, #123, #39, .T. ) ;
#9 = ORIENTED_EDGE ( 'NONE', *, *, #19, .T. ) ;
#10 = PRESENTATION_LAYER_ASSIGNMENT (  '', '', ( #340 ) ) ;
#11 = EDGE_LOOP ( 'NONE', ( #295, #188, #263, #241 ) ) ;
#12 = SPHERICAL_SURFACE ( 'NONE', #54, 49.10000000000008700 ) ;
#13 = DIRECTION ( 'NONE',  ( 0.0000000000000000000, 0.0000000000000000000, -1.000000000000000000 ) ) ;
#14 = ADVANCED_FACE ( 'NONE', ( #113 ), #28, .T. ) ;
#15 = CARTESIAN_POINT ( 'NONE',  ( 357.4744186473197900, 0.0000000000000000000, -3.413090629223672500E-014 ) ) ;
#16 = DIRECTION ( 'NONE',  ( 0.0000000000000000000, 0.0000000000000000000, -1.000000000000000000 ) ) ;
#17 = DIRECTION ( 'NONE',  ( -1.000000000000000000, -0.0000000000000000000, -0.0000000000000000000 ) ) ;
#18 = CARTESIAN_POINT ( 'NONE',  ( -201.9255813526804700, 0.0000000000000000000, -1.456490464165857300E-015 ) ) ;
#19 = EDGE_CURVE ( 'NONE', #130, #123, #105, .T. ) ;
#20 = EDGE_LOOP ( 'NONE', ( #180, #200, #244 ) ) ;
#21 = PRESENTATION_STYLE_ASSIGNMENT (( #148 ) ) ;
#22 = DIRECTION ( 'NONE',  ( 0.0000000000000000000, 0.0000000000000000000, 1.000000000000000000 ) ) ;
#23 = AXIS2_PLACEMENT_3D ( 'NONE', #118, #214, #22 ) ;
#24 = EDGE_CURVE ( 'NONE', #287, #77, #186, .T. ) ;
#25 = EDGE_LOOP ( 'NONE', ( #111, #341, #239, #347 ) ) ;
#26 = MECHANICAL_DESIGN_GEOMETRIC_PRESENTATION_REPRESENTATION (  '', ( #340 ), #48 ) ;
#27 = UNCERTAINTY_MEASURE_WITH_UNIT (LENGTH_MEASURE( 1.000000000000000100E-005 ), #30, 'distance_accuracy_value', 'NONE');
#28 = CYLINDRICAL_SURFACE ( 'NONE', #81, 14.99999999999999800 ) ;
#29 = ORIENTED_EDGE ( 'NONE', *, *, #207, .T. ) ;
#30 =( LENGTH_UNIT ( ) NAMED_UNIT ( * ) SI_UNIT ( .MILLI., .METRE. ) );
#31 = MANIFOLD_SOLID_BREP ( 'Ðý×ª3', #232 ) ;
#32 = CARTESIAN_POINT ( 'NONE',  ( 357.6762851256791000, 0.0000000000000000000, 0.0000000000000000000 ) ) ;
#33 = CARTESIAN_POINT ( 'NONE',  ( 355.2725521689602600, 0.0000000000000000000, 0.0000000000000000000 ) ) ;
#34 = DIRECTION ( 'NONE',  ( 0.0000000000000000000, 0.0000000000000000000, 1.000000000000000000 ) ) ;
#35 = ORIENTED_EDGE ( 'NONE', *, *, #8, .F. ) ;
#36 = DIRECTION ( 'NONE',  ( -1.000000000000000000, -0.0000000000000000000, -0.0000000000000000000 ) ) ;
#37 = CARTESIAN_POINT ( 'NONE',  ( 398.5744186473195300, 0.0000000000000000000, -1.456490803507118800E-015 ) ) ;
#38 = DIRECTION ( 'NONE',  ( 0.0000000000000000000, 0.0000000000000000000, -1.000000000000000000 ) ) ;
#39 = LINE ( 'NONE', #249, #315 ) ;
#40 = DIRECTION ( 'NONE',  ( 0.0000000000000000000, 0.0000000000000000000, -1.000000000000000000 ) ) ;
#41 = CARTESIAN_POINT ( 'NONE',  ( 355.4744186473196800, 0.0000000000000000000, 3.267441582807089100E-014 ) ) ;
#42 = ADVANCED_FACE ( 'NONE', ( #256 ), #322, .T. ) ;
#43 = CARTESIAN_POINT ( 'NONE',  ( -201.9255813526804700, 0.0000000000000000000, -1.456490464165857300E-015 ) ) ;
#44 = AXIS2_PLACEMENT_3D ( 'NONE', #43, #233, #16 ) ;
#45 = CARTESIAN_POINT ( 'NONE',  ( 351.8217716634320000, 0.0000000000000000000, 0.0000000000000000000 ) ) ;
#46 = EDGE_LOOP ( 'NONE', ( #267, #221, #9 ) ) ;
#47 = DIRECTION ( 'NONE',  ( 0.0000000000000000000, 0.0000000000000000000, 1.000000000000000000 ) ) ;
#48 =( GEOMETRIC_REPRESENTATION_CONTEXT ( 3 ) GLOBAL_UNCERTAINTY_ASSIGNED_CONTEXT ( ( #183 ) ) GLOBAL_UNIT_ASSIGNED_CONTEXT ( ( #303, #120, #276 ) ) REPRESENTATION_CONTEXT ( 'NONE', 'WORKASPACE' ) );
#49 = ORIENTED_EDGE ( 'NONE', *, *, #108, .T. ) ;
#50 = PRODUCT ( '145132', '145132', '', ( #114 ) ) ;
#51 = CIRCLE ( 'NONE', #311, 14.99999999999999800 ) ;
#52 = EDGE_CURVE ( 'NONE', #217, #116, #51, .T. ) ;
#53 = ORIENTED_EDGE ( 'NONE', *, *, #223, .F. ) ;
#54 = AXIS2_PLACEMENT_3D ( 'NONE', #71, #335, #128 ) ;
#55 = ADVANCED_BREP_SHAPE_REPRESENTATION ( '145132', ( #300, #31, #282 ), #138 ) ;
#56 = EDGE_LOOP ( 'NONE', ( #161, #218, #321 ) ) ;
#57 = FACE_OUTER_BOUND ( 'NONE', #46, .T. ) ;
#58 = DIRECTION ( 'NONE',  ( -1.000000000000000000, -0.0000000000000000000, -0.0000000000000000000 ) ) ;
#59 = EDGE_CURVE ( 'NONE', #345, #123, #127, .T. ) ;
#60 = SURFACE_SIDE_STYLE ('',( #175 ) ) ;
#61 = CARTESIAN_POINT ( 'NONE',  ( 398.5744186473195300, 0.0000000000000000000, -1.456490803507118800E-015 ) ) ;
#62 = DIRECTION ( 'NONE',  ( 0.0000000000000000000, 1.000000000000000000, 0.0000000000000000000 ) ) ;
#63 = AXIS2_PLACEMENT_3D ( 'NONE', #146, #298, #275 ) ;
#64 = EDGE_LOOP ( 'NONE', ( #210, #324, #49 ) ) ;
#65 = CIRCLE ( 'NONE', #160, 14.99999999999999800 ) ;
#66 = CARTESIAN_POINT ( 'NONE',  ( 124.5233095260452400, 1.836970198721029600E-015, -14.99999999999999800 ) ) ;
#67 = LINE ( 'NONE', #196, #270 ) ;
#68 = DIRECTION ( 'NONE',  ( 0.0000000000000000000, -1.224646799147353200E-016, 1.000000000000000000 ) ) ;
#69 = EDGE_CURVE ( 'NONE', #102, #299, #264, .T. ) ;
#70 = ADVANCED_FACE ( 'NONE', ( #191 ), #12, .T. ) ;
#71 = CARTESIAN_POINT ( 'NONE',  ( 398.5744186473195300, 0.0000000000000000000, -1.456490803507118800E-015 ) ) ;
#72 = DIRECTION ( 'NONE',  ( 0.0000000000000000000, 1.000000000000000000, 0.0000000000000000000 ) ) ;
#73 = DIRECTION ( 'NONE',  ( -1.000000000000000000, -0.0000000000000000000, -0.0000000000000000000 ) ) ;
#74 = AXIS2_PLACEMENT_3D ( 'NONE', #281, #126, #254 ) ;
#75 = DIRECTION ( 'NONE',  ( 0.0000000000000000000, 0.0000000000000000000, 1.000000000000000000 ) ) ;
#76 = EDGE_LOOP ( 'NONE', ( #139, #29, #206 ) ) ;
#77 = VERTEX_POINT ( 'NONE', #205 ) ;
#78 = DIRECTION ( 'NONE',  ( 0.0000000000000000000, 0.0000000000000000000, 1.000000000000000000 ) ) ;
#79 = FACE_OUTER_BOUND ( 'NONE', #11, .T. ) ;
#80 = CIRCLE ( 'NONE', #320, 49.10000000000008700 ) ;
#81 = AXIS2_PLACEMENT_3D ( 'NONE', #272, #58, #225 ) ;
#82 = ORIENTED_EDGE ( 'NONE', *, *, #262, .T. ) ;
#83 = SPHERICAL_SURFACE ( 'NONE', #195, 557.4000000000000900 ) ;
#84 = AXIS2_PLACEMENT_3D ( 'NONE', #228, #62, #226 ) ;
#85 = SPHERICAL_SURFACE ( 'NONE', #84, 557.4000000000000900 ) ;
#86 = APPLICATION_PROTOCOL_DEFINITION ( 'draft international standard', 'automotive_design', 1998, #271 ) ;
#87 = APPLICATION_CONTEXT ( 'automotive_design' ) ;
#88 = DIRECTION ( 'NONE',  ( 0.0000000000000000000, 0.0000000000000000000, 1.000000000000000000 ) ) ;
#89 = FILL_AREA_STYLE_COLOUR ( '', #245 ) ;
#90 = AXIS2_PLACEMENT_3D ( 'NONE', #285, #129, #99 ) ;
#91 = CARTESIAN_POINT ( 'NONE',  ( -201.9255813526804700, 0.0000000000000000000, -1.456490464165857300E-015 ) ) ;
#92 = ORIENTED_EDGE ( 'NONE', *, *, #24, .T. ) ;
#93 = SURFACE_STYLE_FILL_AREA ( #168 ) ;
#94 = DIRECTION ( 'NONE',  ( -1.000000000000000000, -0.0000000000000000000, -0.0000000000000000000 ) ) ;
#95 = DIRECTION ( 'NONE',  ( -0.0000000000000000000, 1.000000000000000000, 1.224646799147353200E-016 ) ) ;
#96 = CARTESIAN_POINT ( 'NONE',  ( 355.2725521689603200, 0.0000000000000000000, 14.99999999999946900 ) ) ;
#97 = ADVANCED_FACE ( 'NONE', ( #136 ), #343, .T. ) ;
#98 = CARTESIAN_POINT ( 'NONE',  ( 398.5744186473195300, 0.0000000000000000000, -1.456490803507118800E-015 ) ) ;
#99 = DIRECTION ( 'NONE',  ( 0.0000000000000000000, 0.0000000000000000000, 1.000000000000000000 ) ) ;
#100 = DIRECTION ( 'NONE',  ( -1.000000000000000000, -0.0000000000000000000, -0.0000000000000000000 ) ) ;
#101 = DIRECTION ( 'NONE',  ( -1.000000000000000000, -0.0000000000000000000, -0.0000000000000000000 ) ) ;
#102 = VERTEX_POINT ( 'NONE', #204 ) ;
#103 = AXIS2_PLACEMENT_3D ( 'NONE', #32, #193, #5 ) ;
#104 = DIRECTION ( 'NONE',  ( 0.0000000000000000000, 1.000000000000000000, 0.0000000000000000000 ) ) ;
#105 = CIRCLE ( 'NONE', #156, 14.99999999999976400 ) ;
#106 = LINE ( 'NONE', #165, #238 ) ;
#107 = VERTEX_POINT ( 'NONE', #41 ) ;
#108 = EDGE_CURVE ( 'NONE', #123, #130, #268, .T. ) ;
#109 = PRESENTATION_STYLE_ASSIGNMENT (( #222 ) ) ;
#110 = AXIS2_PLACEMENT_3D ( 'NONE', #121, #151, #38 ) ;
#111 = ORIENTED_EDGE ( 'NONE', *, *, #112, .F. ) ;
#112 = EDGE_CURVE ( 'NONE', #116, #77, #331, .T. ) ;
#113 = FACE_OUTER_BOUND ( 'NONE', #25, .T. ) ;
#114 = PRODUCT_CONTEXT ( 'NONE', #87, 'mechanical' ) ;
#115 = APPLICATION_PROTOCOL_DEFINITION ( 'draft international standard', 'automotive_design', 1998, #87 ) ;
#116 = VERTEX_POINT ( 'NONE', #309 ) ;
#117 =( GEOMETRIC_REPRESENTATION_CONTEXT ( 3 ) GLOBAL_UNCERTAINTY_ASSIGNED_CONTEXT ( ( #242 ) ) GLOBAL_UNIT_ASSIGNED_CONTEXT ( ( #314, #134, #292 ) ) REPRESENTATION_CONTEXT ( 'NONE', 'WORKASPACE' ) );
#118 = CARTESIAN_POINT ( 'NONE',  ( 351.8217716634320000, 0.0000000000000000000, 0.0000000000000000000 ) ) ;
#119 = UNCERTAINTY_MEASURE_WITH_UNIT (LENGTH_MEASURE( 1.000000000000000100E-005 ), #224, 'distance_accuracy_value', 'NONE');
#120 =( NAMED_UNIT ( * ) PLANE_ANGLE_UNIT ( ) SI_UNIT ( $, .RADIAN. ) );
#121 = CARTESIAN_POINT ( 'NONE',  ( 914.8744186473196600, 0.0000000000000000000, 0.0000000000000000000 ) ) ;
#122 = AXIS2_PLACEMENT_3D ( 'NONE', #91, #248, #34 ) ;
#123 = VERTEX_POINT ( 'NONE', #96 ) ;
#124 = FILL_AREA_STYLE_COLOUR ( '', #7 ) ;
#125 = ADVANCED_FACE ( 'NONE', ( #279 ), #140, .F. ) ;
#126 = DIRECTION ( 'NONE',  ( -1.000000000000000000, -0.0000000000000000000, -0.0000000000000000000 ) ) ;
#127 = CIRCLE ( 'NONE', #44, 557.4000000000000900 ) ;
#128 = DIRECTION ( 'NONE',  ( 0.0000000000000000000, 0.0000000000000000000, 1.000000000000000000 ) ) ;
#129 = DIRECTION ( 'NONE',  ( -1.000000000000000000, -0.0000000000000000000, -0.0000000000000000000 ) ) ;
#130 = VERTEX_POINT ( 'NONE', #153 ) ;
#131 = AXIS2_PLACEMENT_3D ( 'NONE', #18, #177, #132 ) ;
#132 = DIRECTION ( 'NONE',  ( 0.0000000000000000000, -1.224646799147353500E-016, 1.000000000000000000 ) ) ;
#133 = ORIENTED_EDGE ( 'NONE', *, *, #327, .F. ) ;
#134 =( NAMED_UNIT ( * ) PLANE_ANGLE_UNIT ( ) SI_UNIT ( $, .RADIAN. ) );
#135 = EDGE_LOOP ( 'NONE', ( #166, #82, #308, #35 ) ) ;
#136 = FACE_OUTER_BOUND ( 'NONE', #135, .T. ) ;
#137 = FACE_OUTER_BOUND ( 'NONE', #172, .T. ) ;
#138 =( GEOMETRIC_REPRESENTATION_CONTEXT ( 3 ) GLOBAL_UNCERTAINTY_ASSIGNED_CONTEXT ( ( #119 ) ) GLOBAL_UNIT_ASSIGNED_CONTEXT ( ( #224, #326, #144 ) ) REPRESENTATION_CONTEXT ( 'NONE', 'WORKASPACE' ) );
#139 = ORIENTED_EDGE ( 'NONE', *, *, #269, .F. ) ;
#140 = SPHERICAL_SURFACE ( 'NONE', #110, 557.3999999999998600 ) ;
#141 = CIRCLE ( 'NONE', #103, 14.99999999999945100 ) ;
#142 = DIRECTION ( 'NONE',  ( 0.0000000000000000000, 0.0000000000000000000, 1.000000000000000000 ) ) ;
#143 = FILL_AREA_STYLE_COLOUR ( '', #170 ) ;
#144 =( NAMED_UNIT ( * ) SI_UNIT ( $, .STERADIAN. ) SOLID_ANGLE_UNIT ( ) );
#145 = AXIS2_PLACEMENT_3D ( 'NONE', #199, #94, #277 ) ;
#146 = CARTESIAN_POINT ( 'NONE',  ( 914.8744186473196600, 0.0000000000000000000, 0.0000000000000000000 ) ) ;
#147 = CLOSED_SHELL ( 'NONE', ( #306, #253, #70, #42, #14, #332 ) ) ;
#148 = SURFACE_STYLE_USAGE ( .BOTH. , #330 ) ;
#149 = ORIENTED_EDGE ( 'NONE', *, *, #274, .T. ) ;
#150 = CIRCLE ( 'NONE', #266, 49.10000000000008700 ) ;
#151 = DIRECTION ( 'NONE',  ( -0.0000000000000000000, -1.000000000000000000, -0.0000000000000000000 ) ) ;
#152 = CIRCLE ( 'NONE', #181, 14.99999999999945100 ) ;
#153 = CARTESIAN_POINT ( 'NONE',  ( 355.2725521689603200, 1.836970198720964900E-015, -14.99999999999946900 ) ) ;
#154 = DIRECTION ( 'NONE',  ( 0.0000000000000000000, -1.000000000000000000, 0.0000000000000000000 ) ) ;
#155 = DIRECTION ( 'NONE',  ( 0.0000000000000000000, 0.0000000000000000000, 1.000000000000000000 ) ) ;
#156 = AXIS2_PLACEMENT_3D ( 'NONE', #33, #273, #88 ) ;
#157 = FACE_OUTER_BOUND ( 'NONE', #56, .T. ) ;
#158 = SURFACE_STYLE_USAGE ( .BOTH. , #342 ) ;
#159 = MECHANICAL_DESIGN_GEOMETRIC_PRESENTATION_REPRESENTATION (  '', ( #162 ), #117 ) ;
#160 = AXIS2_PLACEMENT_3D ( 'NONE', #208, #182, #75 ) ;
#161 = ORIENTED_EDGE ( 'NONE', *, *, #346, .F. ) ;
#162 = STYLED_ITEM ( 'NONE', ( #243 ), #31 ) ;
#163 = ORIENTED_EDGE ( 'NONE', *, *, #240, .F. ) ;
#164 = DIRECTION ( 'NONE',  ( -1.000000000000000000, -0.0000000000000000000, -0.0000000000000000000 ) ) ;
#165 = CARTESIAN_POINT ( 'NONE',  ( -0.5519199926577972300, 1.836970198720981900E-015, -14.99999999999960700 ) ) ;
#166 = ORIENTED_EDGE ( 'NONE', *, *, #346, .T. ) ;
#167 = DIRECTION ( 'NONE',  ( 0.0000000000000000000, 1.000000000000000000, 0.0000000000000000000 ) ) ;
#168 = FILL_AREA_STYLE ('',( #124 ) ) ;
#169 = STYLED_ITEM ( 'NONE', ( #109 ), #55 ) ;
#170 = COLOUR_RGB ( '',1.000000000000000000, 1.000000000000000000, 1.000000000000000000 ) ;
#171 = DIRECTION ( 'NONE',  ( -1.000000000000000000, -0.0000000000000000000, -0.0000000000000000000 ) ) ;
#172 = EDGE_LOOP ( 'NONE', ( #319, #1, #53 ) ) ;
#173 = ADVANCED_FACE ( 'NONE', ( #79 ), #219, .T. ) ;
#174 = CARTESIAN_POINT ( 'NONE',  ( 914.8744186473196600, 0.0000000000000000000, 0.0000000000000000000 ) ) ;
#175 = SURFACE_STYLE_FILL_AREA ( #246 ) ;
#176 = DIRECTION ( 'NONE',  ( -1.000000000000000000, -0.0000000000000000000, -0.0000000000000000000 ) ) ;
#177 = DIRECTION ( 'NONE',  ( -0.0000000000000000000, 1.000000000000000000, 1.224646799147353200E-016 ) ) ;
#178 = CYLINDRICAL_SURFACE ( 'NONE', #250, 14.99999999999999800 ) ;
#179 = PRODUCT_DEFINITION_CONTEXT ( 'detailed design', #271, 'design' ) ;
#180 = ORIENTED_EDGE ( 'NONE', *, *, #274, .F. ) ;
#181 = AXIS2_PLACEMENT_3D ( 'NONE', #260, #101, #197 ) ;
#182 = DIRECTION ( 'NONE',  ( -1.000000000000000000, -0.0000000000000000000, -0.0000000000000000000 ) ) ;
#183 = UNCERTAINTY_MEASURE_WITH_UNIT (LENGTH_MEASURE( 1.000000000000000100E-005 ), #303, 'distance_accuracy_value', 'NONE');
#184 = AXIS2_PLACEMENT_3D ( 'NONE', #174, #257, #155 ) ;
#185 = FILL_AREA_STYLE ('',( #143 ) ) ;
#186 = CIRCLE ( 'NONE', #23, 14.99999999999999800 ) ;
#187 = AXIS2_PLACEMENT_3D ( 'NONE', #329, #72, #304 ) ;
#188 = ORIENTED_EDGE ( 'NONE', *, *, #240, .T. ) ;
#189 = EDGE_LOOP ( 'NONE', ( #209, #227, #258, #133 ) ) ;
#190 = PRESENTATION_LAYER_ASSIGNMENT (  '', '', ( #169 ) ) ;
#191 = FACE_OUTER_BOUND ( 'NONE', #237, .T. ) ;
#192 =( NAMED_UNIT ( * ) PLANE_ANGLE_UNIT ( ) SI_UNIT ( $, .RADIAN. ) );
#193 = DIRECTION ( 'NONE',  ( -1.000000000000000000, -0.0000000000000000000, -0.0000000000000000000 ) ) ;
#194 = CARTESIAN_POINT ( 'NONE',  ( 355.4744186473196800, 0.0000000000000000000, 3.267441582807089100E-014 ) ) ;
#195 = AXIS2_PLACEMENT_3D ( 'NONE', #338, #167, #47 ) ;
#196 = CARTESIAN_POINT ( 'NONE',  ( 124.5233095260452400, 0.0000000000000000000, 14.99999999999999800 ) ) ;
#197 = DIRECTION ( 'NONE',  ( 0.0000000000000000000, 0.0000000000000000000, 1.000000000000000000 ) ) ;
#198 = DIRECTION ( 'NONE',  ( 0.0000000000000000000, -1.000000000000000000, 0.0000000000000000000 ) ) ;
#199 = CARTESIAN_POINT ( 'NONE',  ( -0.5519199926577972300, 0.0000000000000000000, 0.0000000000000000000 ) ) ;
#200 = ORIENTED_EDGE ( 'NONE', *, *, #259, .T. ) ;
#201 = VECTOR ( 'NONE', #171, 1000.000000000000000 ) ;
#202 = ADVANCED_FACE ( 'NONE', ( #57 ), #2, .F. ) ;
#203 = SPHERICAL_SURFACE ( 'NONE', #122, 557.4000000000000900 ) ;
#204 = CARTESIAN_POINT ( 'NONE',  ( 357.6762851256791000, 1.836970198720972400E-015, -14.99999999999945100 ) ) ;
#205 = CARTESIAN_POINT ( 'NONE',  ( 351.8217716634320000, 1.836970198721029600E-015, -15.00000000000000000 ) ) ;
#206 = ORIENTED_EDGE ( 'NONE', *, *, #52, .F. ) ;
#207 = EDGE_CURVE ( 'NONE', #107, #116, #211, .T. ) ;
#208 = CARTESIAN_POINT ( 'NONE',  ( 355.2725521689602000, 0.0000000000000000000, 0.0000000000000000000 ) ) ;
#209 = ORIENTED_EDGE ( 'NONE', *, *, #52, .T. ) ;
#210 = ORIENTED_EDGE ( 'NONE', *, *, #293, .F. ) ;
#211 = CIRCLE ( 'NONE', #131, 557.4000000000000900 ) ;
#212 = MECHANICAL_DESIGN_GEOMETRIC_PRESENTATION_REPRESENTATION (  '', ( #169 ), #229 ) ;
#213 = FACE_OUTER_BOUND ( 'NONE', #189, .T. ) ;
#214 = DIRECTION ( 'NONE',  ( -1.000000000000000000, -0.0000000000000000000, -0.0000000000000000000 ) ) ;
#215 = CIRCLE ( 'NONE', #63, 557.3999999999998600 ) ;
#216 = AXIS2_PLACEMENT_3D ( 'NONE', #334, #154, #307 ) ;
#217 = VERTEX_POINT ( 'NONE', #235 ) ;
#218 = ORIENTED_EDGE ( 'NONE', *, *, #318, .T. ) ;
#219 = CYLINDRICAL_SURFACE ( 'NONE', #145, 14.99999999999960700 ) ;
#220 = AXIS2_PLACEMENT_3D ( 'NONE', #61, #104, #78 ) ;
#221 = ORIENTED_EDGE ( 'NONE', *, *, #293, .T. ) ;
#222 = SURFACE_STYLE_USAGE ( .BOTH. , #60 ) ;
#223 = EDGE_CURVE ( 'NONE', #116, #217, #65, .T. ) ;
#224 =( LENGTH_UNIT ( ) NAMED_UNIT ( * ) SI_UNIT ( .MILLI., .METRE. ) );
#225 = DIRECTION ( 'NONE',  ( 0.0000000000000000000, 0.0000000000000000000, 1.000000000000000000 ) ) ;
#226 = DIRECTION ( 'NONE',  ( 0.0000000000000000000, 0.0000000000000000000, 1.000000000000000000 ) ) ;
#227 = ORIENTED_EDGE ( 'NONE', *, *, #112, .T. ) ;
#228 = CARTESIAN_POINT ( 'NONE',  ( -201.9255813526804700, 0.0000000000000000000, -1.456490464165857300E-015 ) ) ;
#229 =( GEOMETRIC_REPRESENTATION_CONTEXT ( 3 ) GLOBAL_UNCERTAINTY_ASSIGNED_CONTEXT ( ( #27 ) ) GLOBAL_UNIT_ASSIGNED_CONTEXT ( ( #30, #192, #4 ) ) REPRESENTATION_CONTEXT ( 'NONE', 'WORKASPACE' ) );
#230 = ADVANCED_FACE ( 'NONE', ( #291 ), #83, .F. ) ;
#231 = DIRECTION ( 'NONE',  ( -0.0000000000000000000, -1.000000000000000000, -0.0000000000000000000 ) ) ;
#232 = CLOSED_SHELL ( 'NONE', ( #284, #97, #202, #230, #173, #125 ) ) ;
#233 = DIRECTION ( 'NONE',  ( 0.0000000000000000000, -1.000000000000000000, 0.0000000000000000000 ) ) ;
#234 = CARTESIAN_POINT ( 'NONE',  ( 914.8744186473196600, 0.0000000000000000000, 0.0000000000000000000 ) ) ;
#235 = CARTESIAN_POINT ( 'NONE',  ( 355.2725521689602000, 0.0000000000000000000, 14.99999999999999800 ) ) ;
#236 = AXIS2_PLACEMENT_3D ( 'NONE', #45, #17, #301 ) ;
#237 = EDGE_LOOP ( 'NONE', ( #92, #149, #252 ) ) ;
#238 = VECTOR ( 'NONE', #176, 1000.000000000000000 ) ;
#239 = ORIENTED_EDGE ( 'NONE', *, *, #327, .T. ) ;
#240 = EDGE_CURVE ( 'NONE', #102, #247, #152, .T. ) ;
#241 = ORIENTED_EDGE ( 'NONE', *, *, #19, .F. ) ;
#242 = UNCERTAINTY_MEASURE_WITH_UNIT (LENGTH_MEASURE( 1.000000000000000100E-005 ), #314, 'distance_accuracy_value', 'NONE');
#243 = PRESENTATION_STYLE_ASSIGNMENT (( #158 ) ) ;
#244 = ORIENTED_EDGE ( 'NONE', *, *, #294, .T. ) ;
#245 = COLOUR_RGB ( '',1.000000000000000000, 1.000000000000000000, 1.000000000000000000 ) ;
#246 = FILL_AREA_STYLE ('',( #89 ) ) ;
#247 = VERTEX_POINT ( 'NONE', #339 ) ;
#248 = DIRECTION ( 'NONE',  ( 0.0000000000000000000, 1.000000000000000000, 0.0000000000000000000 ) ) ;
#249 = CARTESIAN_POINT ( 'NONE',  ( -0.5519199926577972300, 0.0000000000000000000, 14.99999999999960700 ) ) ;
#250 = AXIS2_PLACEMENT_3D ( 'NONE', #328, #73, #313 ) ;
#251 = DIRECTION ( 'NONE',  ( 0.0000000000000000000, -1.224646799147353500E-016, 1.000000000000000000 ) ) ;
#252 = ORIENTED_EDGE ( 'NONE', *, *, #294, .F. ) ;
#253 = ADVANCED_FACE ( 'NONE', ( #213 ), #178, .T. ) ;
#254 = DIRECTION ( 'NONE',  ( 0.0000000000000000000, 0.0000000000000000000, 1.000000000000000000 ) ) ;
#255 = DIRECTION ( 'NONE',  ( -0.0000000000000000000, 1.000000000000000000, 1.224646799147353200E-016 ) ) ;
#256 = FACE_OUTER_BOUND ( 'NONE', #20, .T. ) ;
#257 = DIRECTION ( 'NONE',  ( 0.0000000000000000000, 1.000000000000000000, -0.0000000000000000000 ) ) ;
#258 = ORIENTED_EDGE ( 'NONE', *, *, #24, .F. ) ;
#259 = EDGE_CURVE ( 'NONE', #77, #287, #317, .T. ) ;
#260 = CARTESIAN_POINT ( 'NONE',  ( 357.6762851256791000, 0.0000000000000000000, 0.0000000000000000000 ) ) ;
#261 = CIRCLE ( 'NONE', #289, 557.4000000000000900 ) ;
#262 = EDGE_CURVE ( 'NONE', #102, #130, #106, .T. ) ;
#263 = ORIENTED_EDGE ( 'NONE', *, *, #8, .T. ) ;
#264 = CIRCLE ( 'NONE', #184, 557.3999999999998600 ) ;
#265 = PRESENTATION_LAYER_ASSIGNMENT (  '', '', ( #162 ) ) ;
#266 = AXIS2_PLACEMENT_3D ( 'NONE', #98, #255, #68 ) ;
#267 = ORIENTED_EDGE ( 'NONE', *, *, #59, .F. ) ;
#268 = CIRCLE ( 'NONE', #74, 14.99999999999976400 ) ;
#269 = EDGE_CURVE ( 'NONE', #107, #217, #288, .T. ) ;
#270 = VECTOR ( 'NONE', #36, 1000.000000000000000 ) ;
#271 = APPLICATION_CONTEXT ( 'automotive_design' ) ;
#272 = CARTESIAN_POINT ( 'NONE',  ( 124.5233095260452400, 0.0000000000000000000, 0.0000000000000000000 ) ) ;
#273 = DIRECTION ( 'NONE',  ( -1.000000000000000000, -0.0000000000000000000, -0.0000000000000000000 ) ) ;
#274 = EDGE_CURVE ( 'NONE', #77, #278, #150, .T. ) ;
#275 = DIRECTION ( 'NONE',  ( 0.0000000000000000000, 1.224646799147353200E-016, -1.000000000000000000 ) ) ;
#276 =( NAMED_UNIT ( * ) SI_UNIT ( $, .STERADIAN. ) SOLID_ANGLE_UNIT ( ) );
#277 = DIRECTION ( 'NONE',  ( 0.0000000000000000000, 0.0000000000000000000, 1.000000000000000000 ) ) ;
#278 = VERTEX_POINT ( 'NONE', #337 ) ;
#279 = FACE_OUTER_BOUND ( 'NONE', #336, .T. ) ;
#280 = CARTESIAN_POINT ( 'NONE',  ( -201.9255813526804700, 0.0000000000000000000, -1.456490464165857300E-015 ) ) ;
#281 = CARTESIAN_POINT ( 'NONE',  ( 355.2725521689602600, 0.0000000000000000000, 0.0000000000000000000 ) ) ;
#282 = AXIS2_PLACEMENT_3D ( 'NONE', #323, #142, #297 ) ;
#283 = CARTESIAN_POINT ( 'NONE',  ( 351.8217716634320000, 0.0000000000000000000, 15.00000000000000000 ) ) ;
#284 = ADVANCED_FACE ( 'NONE', ( #157 ), #3, .F. ) ;
#285 = CARTESIAN_POINT ( 'NONE',  ( -0.5519199926577972300, 0.0000000000000000000, 0.0000000000000000000 ) ) ;
#286 = DIRECTION ( 'NONE',  ( 0.0000000000000000000, 0.0000000000000000000, 1.000000000000000000 ) ) ;
#287 = VERTEX_POINT ( 'NONE', #283 ) ;
#288 = CIRCLE ( 'NONE', #216, 557.4000000000000900 ) ;
#289 = AXIS2_PLACEMENT_3D ( 'NONE', #280, #95, #251 ) ;
#290 = ORIENTED_EDGE ( 'NONE', *, *, #318, .F. ) ;
#291 = FACE_OUTER_BOUND ( 'NONE', #64, .T. ) ;
#292 =( NAMED_UNIT ( * ) SI_UNIT ( $, .STERADIAN. ) SOLID_ANGLE_UNIT ( ) );
#293 = EDGE_CURVE ( 'NONE', #345, #130, #261, .T. ) ;
#294 = EDGE_CURVE ( 'NONE', #287, #278, #80, .T. ) ;
#295 = ORIENTED_EDGE ( 'NONE', *, *, #262, .F. ) ;
#296 = PRODUCT_DEFINITION ( 'Î´Öª', '', #316, #179 ) ;
#297 = DIRECTION ( 'NONE',  ( 1.000000000000000000, 0.0000000000000000000, 0.0000000000000000000 ) ) ;
#298 = DIRECTION ( 'NONE',  ( 0.0000000000000000000, -1.000000000000000000, -1.224646799147353200E-016 ) ) ;
#299 = VERTEX_POINT ( 'NONE', #15 ) ;
#300 = MANIFOLD_SOLID_BREP ( 'Ðý×ª1', #147 ) ;
#301 = DIRECTION ( 'NONE',  ( 0.0000000000000000000, 0.0000000000000000000, 1.000000000000000000 ) ) ;
#302 = AXIS2_PLACEMENT_3D ( 'NONE', #234, #231, #40 ) ;
#303 =( LENGTH_UNIT ( ) NAMED_UNIT ( * ) SI_UNIT ( .MILLI., .METRE. ) );
#304 = DIRECTION ( 'NONE',  ( 0.0000000000000000000, 0.0000000000000000000, 1.000000000000000000 ) ) ;
#305 = SURFACE_STYLE_FILL_AREA ( #185 ) ;
#306 = ADVANCED_FACE ( 'NONE', ( #6 ), #85, .T. ) ;
#307 = DIRECTION ( 'NONE',  ( 0.0000000000000000000, 0.0000000000000000000, -1.000000000000000000 ) ) ;
#308 = ORIENTED_EDGE ( 'NONE', *, *, #108, .F. ) ;
#309 = CARTESIAN_POINT ( 'NONE',  ( 355.2725521689602000, 1.836970198721029600E-015, -14.99999999999999800 ) ) ;
#310 = CARTESIAN_POINT ( 'NONE',  ( 355.2725521689602000, 0.0000000000000000000, 0.0000000000000000000 ) ) ;
#311 = AXIS2_PLACEMENT_3D ( 'NONE', #310, #100, #286 ) ;
#312 = ORIENTED_EDGE ( 'NONE', *, *, #69, .T. ) ;
#313 = DIRECTION ( 'NONE',  ( 0.0000000000000000000, 0.0000000000000000000, 1.000000000000000000 ) ) ;
#314 =( LENGTH_UNIT ( ) NAMED_UNIT ( * ) SI_UNIT ( .MILLI., .METRE. ) );
#315 = VECTOR ( 'NONE', #164, 1000.000000000000000 ) ;
#316 = PRODUCT_DEFINITION_FORMATION_WITH_SPECIFIED_SOURCE ( 'ÈÎºÎ', '', #50, .NOT_KNOWN. ) ;
#317 = CIRCLE ( 'NONE', #236, 14.99999999999999800 ) ;
#318 = EDGE_CURVE ( 'NONE', #247, #299, #215, .T. ) ;
#319 = ORIENTED_EDGE ( 'NONE', *, *, #207, .F. ) ;
#320 = AXIS2_PLACEMENT_3D ( 'NONE', #37, #198, #13 ) ;
#321 = ORIENTED_EDGE ( 'NONE', *, *, #69, .F. ) ;
#322 = SPHERICAL_SURFACE ( 'NONE', #220, 49.10000000000008700 ) ;
#323 = CARTESIAN_POINT ( 'NONE',  ( 0.0000000000000000000, 0.0000000000000000000, 0.0000000000000000000 ) ) ;
#324 = ORIENTED_EDGE ( 'NONE', *, *, #59, .T. ) ;
#325 = PRODUCT_DEFINITION_SHAPE ( 'NONE', 'NONE',  #296 ) ;
#326 =( NAMED_UNIT ( * ) PLANE_ANGLE_UNIT ( ) SI_UNIT ( $, .RADIAN. ) );
#327 = EDGE_CURVE ( 'NONE', #217, #287, #67, .T. ) ;
#328 = CARTESIAN_POINT ( 'NONE',  ( 124.5233095260452400, 0.0000000000000000000, 0.0000000000000000000 ) ) ;
#329 = CARTESIAN_POINT ( 'NONE',  ( -201.9255813526804700, 0.0000000000000000000, -1.456490464165857300E-015 ) ) ;
#330 = SURFACE_SIDE_STYLE ('',( #93 ) ) ;
#331 = LINE ( 'NONE', #66, #201 ) ;
#332 = ADVANCED_FACE ( 'NONE', ( #137 ), #203, .T. ) ;
#333 = PRODUCT_RELATED_PRODUCT_CATEGORY ( 'part', '', ( #50 ) ) ;
#334 = CARTESIAN_POINT ( 'NONE',  ( -201.9255813526804700, 0.0000000000000000000, -1.456490464165857300E-015 ) ) ;
#335 = DIRECTION ( 'NONE',  ( 0.0000000000000000000, 1.000000000000000000, 0.0000000000000000000 ) ) ;
#336 = EDGE_LOOP ( 'NONE', ( #290, #163, #312 ) ) ;
#337 = CARTESIAN_POINT ( 'NONE',  ( 349.4744186473194500, 0.0000000000000000000, 1.550017088399638700E-015 ) ) ;
#338 = CARTESIAN_POINT ( 'NONE',  ( -201.9255813526804700, 0.0000000000000000000, -1.456490464165857300E-015 ) ) ;
#339 = CARTESIAN_POINT ( 'NONE',  ( 357.6762851256791000, 0.0000000000000000000, 14.99999999999945100 ) ) ;
#340 = STYLED_ITEM ( 'NONE', ( #21 ), #300 ) ;
#341 = ORIENTED_EDGE ( 'NONE', *, *, #223, .T. ) ;
#342 = SURFACE_SIDE_STYLE ('',( #305 ) ) ;
#343 = CYLINDRICAL_SURFACE ( 'NONE', #90, 14.99999999999960700 ) ;
#344 = SHAPE_DEFINITION_REPRESENTATION ( #325, #55 ) ;
#345 = VERTEX_POINT ( 'NONE', #194 ) ;
#346 = EDGE_CURVE ( 'NONE', #247, #102, #141, .T. ) ;
#347 = ORIENTED_EDGE ( 'NONE', *, *, #259, .F. ) ;
ENDSEC;
END-ISO-10303-21;
