ISO-10303-21;
HEADER;
FILE_DESCRIPTION (( 'STEP AP214' ),
    '1' );
FILE_NAME ('145138.STEP',
    '2019-06-05T03:21:34',
    ( 'user' ),
    ( 'Î¢ÈíÖÐ¹ú' ),
    'SwSTEP 2.0',
    'SolidWorks 2016',
    '' );
FILE_SCHEMA (( 'AUTOMOTIVE_DESIGN' ));
ENDSEC;

DATA;
#1 = CARTESIAN_POINT ( 'NONE',  ( 1160.658823696084000, 0.0000000000000000000, 0.0000000000000000000 ) ) ;
#2 = EDGE_LOOP ( 'NONE', ( #26, #15, #79 ) ) ;
#3 = DIRECTION ( 'NONE',  ( 0.0000000000000000000, 0.0000000000000000000, 1.000000000000000000 ) ) ;
#4 = DIRECTION ( 'NONE',  ( 1.000000000000000000, 0.0000000000000000000, 0.0000000000000000000 ) ) ;
#5 = EDGE_CURVE ( 'NONE', #250, #319, #17, .T. ) ;
#6 = CARTESIAN_POINT ( 'NONE',  ( -151.1284751181453600, 3.110602869834272100E-015, -25.39999999999995600 ) ) ;
#7 = DIRECTION ( 'NONE',  ( 0.0000000000000000000, -1.000000000000000000, 0.0000000000000000000 ) ) ;
#8 = CIRCLE ( 'NONE', #210, 1235.900000000000100 ) ;
#9 = DIRECTION ( 'NONE',  ( 0.0000000000000000000, 0.0000000000000000000, 1.000000000000000000 ) ) ;
#10 = DIRECTION ( 'NONE',  ( 0.0000000000000000000, 1.224646799147353000E-016, -1.000000000000000000 ) ) ;
#11 = FACE_OUTER_BOUND ( 'NONE', #194, .T. ) ;
#12 = DIRECTION ( 'NONE',  ( 0.0000000000000000000, 0.0000000000000000000, 1.000000000000000000 ) ) ;
#13 = AXIS2_PLACEMENT_3D ( 'NONE', #125, #160, #41 ) ;
#14 = CARTESIAN_POINT ( 'NONE',  ( -223.9411763039183300, 0.0000000000000000000, -7.155734338404329300E-015 ) ) ;
#15 = ORIENTED_EDGE ( 'NONE', *, *, #228, .T. ) ;
#16 = CARTESIAN_POINT ( 'NONE',  ( -74.98014056491730600, 0.0000000000000000000, 25.39999999999993800 ) ) ;
#17 = CIRCLE ( 'NONE', #295, 121.2000000000000200 ) ;
#18 = FILL_AREA_STYLE ('',( #313 ) ) ;
#19 = DIRECTION ( 'NONE',  ( 0.0000000000000000000, 1.000000000000000000, 0.0000000000000000000 ) ) ;
#20 = EDGE_CURVE ( 'NONE', #242, #55, #77, .T. ) ;
#21 = CIRCLE ( 'NONE', #100, 25.39999999999999100 ) ;
#22 = EDGE_LOOP ( 'NONE', ( #164, #193, #126 ) ) ;
#23 = ADVANCED_FACE ( 'NONE', ( #202 ), #302, .T. ) ;
#24 = SPHERICAL_SURFACE ( 'NONE', #318, 146.1000000000023800 ) ;
#25 = DIRECTION ( 'NONE',  ( 0.0000000000000000000, 1.000000000000000000, 0.0000000000000000000 ) ) ;
#26 = ORIENTED_EDGE ( 'NONE', *, *, #274, .F. ) ;
#27 = SPHERICAL_SURFACE ( 'NONE', #233, 1235.900000000000100 ) ;
#28 = APPLICATION_CONTEXT ( 'automotive_design' ) ;
#29 = PRODUCT_DEFINITION_CONTEXT ( 'detailed design', #28, 'design' ) ;
#30 = AXIS2_PLACEMENT_3D ( 'NONE', #280, #311, #128 ) ;
#31 = DIRECTION ( 'NONE',  ( 0.0000000000000000000, 0.0000000000000000000, 1.000000000000000000 ) ) ;
#32 = CIRCLE ( 'NONE', #291, 146.1000000000023800 ) ;
#33 = FACE_OUTER_BOUND ( 'NONE', #124, .T. ) ;
#34 = APPLICATION_PROTOCOL_DEFINITION ( 'draft international standard', 'automotive_design', 1998, #28 ) ;
#35 = VERTEX_POINT ( 'NONE', #71 ) ;
#36 = DIRECTION ( 'NONE',  ( -1.000000000000000000, -0.0000000000000000000, -0.0000000000000000000 ) ) ;
#37 = STYLED_ITEM ( 'NONE', ( #191 ), #197 ) ;
#38 = ADVANCED_FACE ( 'NONE', ( #11 ), #112, .T. ) ;
#39 = CARTESIAN_POINT ( 'NONE',  ( 1160.658823696084000, 0.0000000000000000000, 0.0000000000000000000 ) ) ;
#40 = DIRECTION ( 'NONE',  ( 0.0000000000000000000, -1.224646799147353200E-016, 1.000000000000000000 ) ) ;
#41 = DIRECTION ( 'NONE',  ( 0.0000000000000000000, 0.0000000000000000000, 1.000000000000000000 ) ) ;
#42 = FACE_OUTER_BOUND ( 'NONE', #98, .T. ) ;
#43 = DIRECTION ( 'NONE',  ( 0.0000000000000000000, -1.224646799147353500E-016, 1.000000000000000000 ) ) ;
#44 = PRODUCT_CONTEXT ( 'NONE', #81, 'mechanical' ) ;
#45 = EDGE_LOOP ( 'NONE', ( #114, #212, #93 ) ) ;
#46 = DIRECTION ( 'NONE',  ( -0.0000000000000000000, 1.000000000000000000, 1.224646799147353200E-016 ) ) ;
#47 =( NAMED_UNIT ( * ) SI_UNIT ( $, .STERADIAN. ) SOLID_ANGLE_UNIT ( ) );
#48 = AXIS2_PLACEMENT_3D ( 'NONE', #63, #262, #83 ) ;
#49 = ADVANCED_FACE ( 'NONE', ( #288 ), #62, .T. ) ;
#50 = CIRCLE ( 'NONE', #176, 146.1000000000023800 ) ;
#51 = VERTEX_POINT ( 'NONE', #165 ) ;
#52 = PRESENTATION_LAYER_ASSIGNMENT (  '', '', ( #37 ) ) ;
#53 = VECTOR ( 'NONE', #36, 1000.000000000000000 ) ;
#54 = PRESENTATION_STYLE_ASSIGNMENT (( #86 ) ) ;
#55 = VERTEX_POINT ( 'NONE', #214 ) ;
#56 = CYLINDRICAL_SURFACE ( 'NONE', #149, 25.39999999999995600 ) ;
#57 = DIRECTION ( 'NONE',  ( 0.0000000000000000000, 0.0000000000000000000, -1.000000000000000000 ) ) ;
#58 = ORIENTED_EDGE ( 'NONE', *, *, #145, .F. ) ;
#59 = ORIENTED_EDGE ( 'NONE', *, *, #107, .T. ) ;
#60 =( NAMED_UNIT ( * ) PLANE_ANGLE_UNIT ( ) SI_UNIT ( $, .RADIAN. ) );
#61 = CARTESIAN_POINT ( 'NONE',  ( 36.75882369608332600, 0.0000000000000000000, -8.101075252370286000E-015 ) ) ;
#62 = CYLINDRICAL_SURFACE ( 'NONE', #48, 25.39999999999999100 ) ;
#63 = CARTESIAN_POINT ( 'NONE',  ( -402.0212655728769300, 0.0000000000000000000, 0.0000000000000000000 ) ) ;
#64 = COLOUR_RGB ( '',1.000000000000000000, 1.000000000000000000, 1.000000000000000000 ) ;
#65 =( NAMED_UNIT ( * ) PLANE_ANGLE_UNIT ( ) SI_UNIT ( $, .RADIAN. ) );
#66 = SPHERICAL_SURFACE ( 'NONE', #85, 146.1000000000023800 ) ;
#67 = AXIS2_PLACEMENT_3D ( 'NONE', #133, #19, #292 ) ;
#68 = DIRECTION ( 'NONE',  ( -0.0000000000000000000, 1.000000000000000000, 1.224646799147353200E-016 ) ) ;
#69 = ORIENTED_EDGE ( 'NONE', *, *, #266, .T. ) ;
#70 = CARTESIAN_POINT ( 'NONE',  ( -80.06605684262751800, 0.0000000000000000000, 0.0000000000000000000 ) ) ;
#71 = CARTESIAN_POINT ( 'NONE',  ( -75.24117630391602100, 0.0000000000000000000, -7.567704895331068700E-014 ) ) ;
#72 = FACE_OUTER_BOUND ( 'NONE', #310, .T. ) ;
#73 = FILL_AREA_STYLE ('',( #168 ) ) ;
#74 = MECHANICAL_DESIGN_GEOMETRIC_PRESENTATION_REPRESENTATION (  '', ( #37 ), #91 ) ;
#75 = DIRECTION ( 'NONE',  ( 0.0000000000000000000, 0.0000000000000000000, 1.000000000000000000 ) ) ;
#76 = FACE_OUTER_BOUND ( 'NONE', #2, .T. ) ;
#77 = CIRCLE ( 'NONE', #312, 25.39999999999999100 ) ;
#78 = DIRECTION ( 'NONE',  ( 0.0000000000000000000, 0.0000000000000000000, 1.000000000000000000 ) ) ;
#79 = ORIENTED_EDGE ( 'NONE', *, *, #200, .F. ) ;
#80 = SURFACE_STYLE_FILL_AREA ( #18 ) ;
#81 = APPLICATION_CONTEXT ( 'automotive_design' ) ;
#82 = CIRCLE ( 'NONE', #225, 121.2000000000000200 ) ;
#83 = DIRECTION ( 'NONE',  ( 0.0000000000000000000, 0.0000000000000000000, 1.000000000000000000 ) ) ;
#84 = SURFACE_STYLE_FILL_AREA ( #73 ) ;
#85 = AXIS2_PLACEMENT_3D ( 'NONE', #14, #150, #99 ) ;
#86 = SURFACE_STYLE_USAGE ( .BOTH. , #90 ) ;
#87 = CARTESIAN_POINT ( 'NONE',  ( -80.06605684262751800, 0.0000000000000000000, 0.0000000000000000000 ) ) ;
#88 =( LENGTH_UNIT ( ) NAMED_UNIT ( * ) SI_UNIT ( .MILLI., .METRE. ) );
#89 = SPHERICAL_SURFACE ( 'NONE', #269, 1235.900000000000100 ) ;
#90 = SURFACE_SIDE_STYLE ('',( #80 ) ) ;
#91 =( GEOMETRIC_REPRESENTATION_CONTEXT ( 3 ) GLOBAL_UNCERTAINTY_ASSIGNED_CONTEXT ( ( #294 ) ) GLOBAL_UNIT_ASSIGNED_CONTEXT ( ( #151, #65, #121 ) ) REPRESENTATION_CONTEXT ( 'NONE', 'WORKASPACE' ) );
#92 = CLOSED_SHELL ( 'NONE', ( #284, #140, #340, #113, #23, #234 ) ) ;
#93 = ORIENTED_EDGE ( 'NONE', *, *, #200, .T. ) ;
#94 = DIRECTION ( 'NONE',  ( 0.0000000000000000000, 0.0000000000000000000, 1.000000000000000000 ) ) ;
#95 = CARTESIAN_POINT ( 'NONE',  ( -402.0212655728769300, 0.0000000000000000000, 25.39999999999999100 ) ) ;
#96 = FACE_OUTER_BOUND ( 'NONE', #182, .T. ) ;
#97 = VERTEX_POINT ( 'NONE', #187 ) ;
#98 = EDGE_LOOP ( 'NONE', ( #329, #286, #281 ) ) ;
#99 = DIRECTION ( 'NONE',  ( 0.0000000000000000000, 0.0000000000000000000, 1.000000000000000000 ) ) ;
#100 = AXIS2_PLACEMENT_3D ( 'NONE', #232, #122, #213 ) ;
#101 = CIRCLE ( 'NONE', #243, 1235.900000000000100 ) ;
#102 = DIRECTION ( 'NONE',  ( 0.0000000000000000000, -1.000000000000000000, 0.0000000000000000000 ) ) ;
#103 = FILL_AREA_STYLE ('',( #333 ) ) ;
#104 = PRODUCT ( '145138', '145138', '', ( #44 ) ) ;
#105 = COLOUR_RGB ( '',1.000000000000000000, 1.000000000000000000, 1.000000000000000000 ) ;
#106 = ORIENTED_EDGE ( 'NONE', *, *, #20, .T. ) ;
#107 = EDGE_CURVE ( 'NONE', #335, #242, #173, .T. ) ;
#108 = CARTESIAN_POINT ( 'NONE',  ( 36.75882369608332600, 0.0000000000000000000, -8.101075252370286000E-015 ) ) ;
#109 = AXIS2_PLACEMENT_3D ( 'NONE', #282, #251, #94 ) ;
#110 = CARTESIAN_POINT ( 'NONE',  ( -77.84117630391593000, 0.0000000000000000000, 1.790310529367232200E-015 ) ) ;
#111 = ADVANCED_FACE ( 'NONE', ( #127 ), #147, .T. ) ;
#112 = CYLINDRICAL_SURFACE ( 'NONE', #30, 25.39999999999999100 ) ;
#113 = ADVANCED_FACE ( 'NONE', ( #136 ), #66, .F. ) ;
#114 = ORIENTED_EDGE ( 'NONE', *, *, #228, .F. ) ;
#115 = ORIENTED_EDGE ( 'NONE', *, *, #285, .T. ) ;
#116 = ADVANCED_FACE ( 'NONE', ( #42 ), #268, .T. ) ;
#117 =( LENGTH_UNIT ( ) NAMED_UNIT ( * ) SI_UNIT ( .MILLI., .METRE. ) );
#118 = CARTESIAN_POINT ( 'NONE',  ( -74.98014056491730600, 0.0000000000000000000, 0.0000000000000000000 ) ) ;
#119 =( LENGTH_UNIT ( ) NAMED_UNIT ( * ) SI_UNIT ( .MILLI., .METRE. ) );
#120 = CIRCLE ( 'NONE', #254, 25.39999999999999100 ) ;
#121 =( NAMED_UNIT ( * ) SI_UNIT ( $, .STERADIAN. ) SOLID_ANGLE_UNIT ( ) );
#122 = DIRECTION ( 'NONE',  ( -1.000000000000000000, -0.0000000000000000000, -0.0000000000000000000 ) ) ;
#123 = STYLED_ITEM ( 'NONE', ( #54 ), #270 ) ;
#124 = EDGE_LOOP ( 'NONE', ( #69, #211, #304 ) ) ;
#125 = CARTESIAN_POINT ( 'NONE',  ( -151.1284751181453600, 0.0000000000000000000, 0.0000000000000000000 ) ) ;
#126 = ORIENTED_EDGE ( 'NONE', *, *, #260, .T. ) ;
#127 = FACE_OUTER_BOUND ( 'NONE', #170, .T. ) ;
#128 = DIRECTION ( 'NONE',  ( 0.0000000000000000000, 0.0000000000000000000, 1.000000000000000000 ) ) ;
#129 = DIRECTION ( 'NONE',  ( -0.0000000000000000000, 1.000000000000000000, 1.224646799147353200E-016 ) ) ;
#130 = CARTESIAN_POINT ( 'NONE',  ( -223.9411763039183300, 0.0000000000000000000, -7.155734338404329300E-015 ) ) ;
#131 = AXIS2_PLACEMENT_3D ( 'NONE', #324, #249, #216 ) ;
#132 = LINE ( 'NONE', #189, #53 ) ;
#133 = CARTESIAN_POINT ( 'NONE',  ( -223.9411763039183300, 0.0000000000000000000, -7.155734338404329300E-015 ) ) ;
#134 = CLOSED_SHELL ( 'NONE', ( #253, #49, #320, #116, #38, #111 ) ) ;
#135 = VERTEX_POINT ( 'NONE', #326 ) ;
#136 = FACE_OUTER_BOUND ( 'NONE', #22, .T. ) ;
#137 = EDGE_CURVE ( 'NONE', #242, #250, #143, .T. ) ;
#138 = DIRECTION ( 'NONE',  ( -1.000000000000000000, -0.0000000000000000000, -0.0000000000000000000 ) ) ;
#139 = CIRCLE ( 'NONE', #322, 25.39999999999997400 ) ;
#140 = ADVANCED_FACE ( 'NONE', ( #96 ), #56, .T. ) ;
#141 = ORIENTED_EDGE ( 'NONE', *, *, #185, .T. ) ;
#142 = PRESENTATION_LAYER_ASSIGNMENT (  '', '', ( #123 ) ) ;
#143 = LINE ( 'NONE', #220, #209 ) ;
#144 = SPHERICAL_SURFACE ( 'NONE', #342, 146.1000000000023800 ) ;
#145 = EDGE_CURVE ( 'NONE', #51, #135, #162, .T. ) ;
#146 = ORIENTED_EDGE ( 'NONE', *, *, #180, .T. ) ;
#147 = SPHERICAL_SURFACE ( 'NONE', #67, 146.1000000000023800 ) ;
#148 = DIRECTION ( 'NONE',  ( 0.0000000000000000000, 0.0000000000000000000, 1.000000000000000000 ) ) ;
#149 = AXIS2_PLACEMENT_3D ( 'NONE', #332, #183, #148 ) ;
#150 = DIRECTION ( 'NONE',  ( 0.0000000000000000000, 1.000000000000000000, 0.0000000000000000000 ) ) ;
#151 =( LENGTH_UNIT ( ) NAMED_UNIT ( * ) SI_UNIT ( .MILLI., .METRE. ) );
#152 = ORIENTED_EDGE ( 'NONE', *, *, #274, .T. ) ;
#153 = DIRECTION ( 'NONE',  ( -0.0000000000000000000, -1.000000000000000000, -0.0000000000000000000 ) ) ;
#154 = DIRECTION ( 'NONE',  ( -1.000000000000000000, -0.0000000000000000000, -0.0000000000000000000 ) ) ;
#155 = CIRCLE ( 'NONE', #305, 25.39999999999997400 ) ;
#156 = AXIS2_PLACEMENT_3D ( 'NONE', #247, #181, #4 ) ;
#157 = VERTEX_POINT ( 'NONE', #16 ) ;
#158 = CARTESIAN_POINT ( 'NONE',  ( -81.74974139522134900, 3.110602869834285500E-015, -25.40000000000007700 ) ) ;
#159 = VECTOR ( 'NONE', #256, 1000.000000000000000 ) ;
#160 = DIRECTION ( 'NONE',  ( -1.000000000000000000, -0.0000000000000000000, -0.0000000000000000000 ) ) ;
#161 = EDGE_CURVE ( 'NONE', #175, #135, #139, .T. ) ;
#162 = CIRCLE ( 'NONE', #131, 146.1000000000023800 ) ;
#163 = DIRECTION ( 'NONE',  ( 0.0000000000000000000, 0.0000000000000000000, 1.000000000000000000 ) ) ;
#164 = ORIENTED_EDGE ( 'NONE', *, *, #245, .F. ) ;
#165 = CARTESIAN_POINT ( 'NONE',  ( -77.84117630391593000, 0.0000000000000000000, 1.790310529367232200E-015 ) ) ;
#166 = MECHANICAL_DESIGN_GEOMETRIC_PRESENTATION_REPRESENTATION (  '', ( #123 ), #184 ) ;
#167 = FACE_OUTER_BOUND ( 'NONE', #45, .T. ) ;
#168 = FILL_AREA_STYLE_COLOUR ( '', #64 ) ;
#169 = DIRECTION ( 'NONE',  ( -1.000000000000000000, -0.0000000000000000000, -0.0000000000000000000 ) ) ;
#170 = EDGE_LOOP ( 'NONE', ( #271, #146, #263 ) ) ;
#171 = ORIENTED_EDGE ( 'NONE', *, *, #266, .F. ) ;
#172 = UNCERTAINTY_MEASURE_WITH_UNIT (LENGTH_MEASURE( 1.000000000000000100E-005 ), #88, 'distance_accuracy_value', 'NONE');
#173 = CIRCLE ( 'NONE', #339, 146.1000000000023800 ) ;
#174 = SURFACE_STYLE_USAGE ( .BOTH. , #296 ) ;
#175 = VERTEX_POINT ( 'NONE', #252 ) ;
#176 = AXIS2_PLACEMENT_3D ( 'NONE', #277, #102, #237 ) ;
#177 = VECTOR ( 'NONE', #258, 1000.000000000000000 ) ;
#178 = ORIENTED_EDGE ( 'NONE', *, *, #238, .T. ) ;
#179 = PRODUCT_DEFINITION ( 'Î´Öª', '', #199, #29 ) ;
#180 = EDGE_CURVE ( 'NONE', #335, #55, #50, .T. ) ;
#181 = DIRECTION ( 'NONE',  ( 0.0000000000000000000, 0.0000000000000000000, 1.000000000000000000 ) ) ;
#182 = EDGE_LOOP ( 'NONE', ( #152, #204, #279, #297 ) ) ;
#183 = DIRECTION ( 'NONE',  ( -1.000000000000000000, -0.0000000000000000000, -0.0000000000000000000 ) ) ;
#184 =( GEOMETRIC_REPRESENTATION_CONTEXT ( 3 ) GLOBAL_UNCERTAINTY_ASSIGNED_CONTEXT ( ( #336 ) ) GLOBAL_UNIT_ASSIGNED_CONTEXT ( ( #119, #60, #328 ) ) REPRESENTATION_CONTEXT ( 'NONE', 'WORKASPACE' ) );
#185 = EDGE_CURVE ( 'NONE', #97, #157, #205, .T. ) ;
#186 = PRESENTATION_STYLE_ASSIGNMENT (( #174 ) ) ;
#187 = CARTESIAN_POINT ( 'NONE',  ( -74.98014056491730600, 3.110602869834270600E-015, -25.39999999999993800 ) ) ;
#188 = CIRCLE ( 'NONE', #203, 25.39999999999993800 ) ;
#189 = CARTESIAN_POINT ( 'NONE',  ( -151.1284751181453600, 0.0000000000000000000, 25.39999999999995600 ) ) ;
#190 = CARTESIAN_POINT ( 'NONE',  ( -80.06605684262751800, 3.110602869834276100E-015, -25.39999999999999100 ) ) ;
#191 = PRESENTATION_STYLE_ASSIGNMENT (( #278 ) ) ;
#192 = DIRECTION ( 'NONE',  ( 0.0000000000000000000, 0.0000000000000000000, 1.000000000000000000 ) ) ;
#193 = ORIENTED_EDGE ( 'NONE', *, *, #145, .T. ) ;
#194 = EDGE_LOOP ( 'NONE', ( #316, #106, #115, #300 ) ) ;
#195 = DIRECTION ( 'NONE',  ( 0.0000000000000000000, 0.0000000000000000000, 1.000000000000000000 ) ) ;
#196 = AXIS2_PLACEMENT_3D ( 'NONE', #118, #154, #195 ) ;
#197 = ADVANCED_BREP_SHAPE_REPRESENTATION ( '145138', ( #270, #323, #156 ), #248 ) ;
#198 = ORIENTED_EDGE ( 'NONE', *, *, #285, .F. ) ;
#199 = PRODUCT_DEFINITION_FORMATION_WITH_SPECIFIED_SOURCE ( 'ÈÎºÎ', '', #104, .NOT_KNOWN. ) ;
#200 = EDGE_CURVE ( 'NONE', #97, #35, #8, .T. ) ;
#201 = SURFACE_SIDE_STYLE ('',( #337 ) ) ;
#202 = FACE_OUTER_BOUND ( 'NONE', #338, .T. ) ;
#203 = AXIS2_PLACEMENT_3D ( 'NONE', #306, #255, #240 ) ;
#204 = ORIENTED_EDGE ( 'NONE', *, *, #276, .T. ) ;
#205 = CIRCLE ( 'NONE', #196, 25.39999999999993800 ) ;
#206 = EDGE_CURVE ( 'NONE', #341, #319, #82, .T. ) ;
#207 = SHAPE_DEFINITION_REPRESENTATION ( #239, #197 ) ;
#208 = CARTESIAN_POINT ( 'NONE',  ( -84.44117630391669100, 0.0000000000000000000, -6.797156495373241300E-016 ) ) ;
#209 = VECTOR ( 'NONE', #334, 1000.000000000000000 ) ;
#210 = AXIS2_PLACEMENT_3D ( 'NONE', #309, #229, #9 ) ;
#211 = ORIENTED_EDGE ( 'NONE', *, *, #5, .T. ) ;
#212 = ORIENTED_EDGE ( 'NONE', *, *, #185, .F. ) ;
#213 = DIRECTION ( 'NONE',  ( 0.0000000000000000000, 0.0000000000000000000, 1.000000000000000000 ) ) ;
#214 = CARTESIAN_POINT ( 'NONE',  ( -80.06605684262751800, 0.0000000000000000000, 25.39999999999999100 ) ) ;
#215 = PRODUCT_RELATED_PRODUCT_CATEGORY ( 'part', '', ( #104 ) ) ;
#216 = DIRECTION ( 'NONE',  ( 0.0000000000000000000, 0.0000000000000000000, -1.000000000000000000 ) ) ;
#217 = EDGE_CURVE ( 'NONE', #157, #135, #132, .T. ) ;
#218 = DIRECTION ( 'NONE',  ( 0.0000000000000000000, 1.000000000000000000, 0.0000000000000000000 ) ) ;
#219 =( NAMED_UNIT ( * ) PLANE_ANGLE_UNIT ( ) SI_UNIT ( $, .RADIAN. ) );
#220 = CARTESIAN_POINT ( 'NONE',  ( -402.0212655728769300, 3.110602869834276100E-015, -25.39999999999999100 ) ) ;
#221 = ORIENTED_EDGE ( 'NONE', *, *, #180, .F. ) ;
#222 = AXIS2_PLACEMENT_3D ( 'NONE', #235, #138, #78 ) ;
#223 = CARTESIAN_POINT ( 'NONE',  ( -81.74974139522134900, 0.0000000000000000000, 25.40000000000007000 ) ) ;
#224 = DIRECTION ( 'NONE',  ( 0.0000000000000000000, 0.0000000000000000000, 1.000000000000000000 ) ) ;
#225 = AXIS2_PLACEMENT_3D ( 'NONE', #61, #7, #265 ) ;
#226 = ORIENTED_EDGE ( 'NONE', *, *, #217, .T. ) ;
#227 = FACE_OUTER_BOUND ( 'NONE', #290, .T. ) ;
#228 = EDGE_CURVE ( 'NONE', #157, #35, #101, .T. ) ;
#229 = DIRECTION ( 'NONE',  ( 0.0000000000000000000, 1.000000000000000000, -0.0000000000000000000 ) ) ;
#230 = ORIENTED_EDGE ( 'NONE', *, *, #245, .T. ) ;
#231 = DIRECTION ( 'NONE',  ( 0.0000000000000000000, 0.0000000000000000000, -1.000000000000000000 ) ) ;
#232 = CARTESIAN_POINT ( 'NONE',  ( -81.74974139522134900, 0.0000000000000000000, 0.0000000000000000000 ) ) ;
#233 = AXIS2_PLACEMENT_3D ( 'NONE', #1, #314, #231 ) ;
#234 = ADVANCED_FACE ( 'NONE', ( #167 ), #89, .F. ) ;
#235 = CARTESIAN_POINT ( 'NONE',  ( -81.74974139522134900, 0.0000000000000000000, 0.0000000000000000000 ) ) ;
#236 = ORIENTED_EDGE ( 'NONE', *, *, #238, .F. ) ;
#237 = DIRECTION ( 'NONE',  ( 0.0000000000000000000, 0.0000000000000000000, -1.000000000000000000 ) ) ;
#238 = EDGE_CURVE ( 'NONE', #55, #242, #120, .T. ) ;
#239 = PRODUCT_DEFINITION_SHAPE ( 'NONE', 'NONE',  #179 ) ;
#240 = DIRECTION ( 'NONE',  ( 0.0000000000000000000, 0.0000000000000000000, 1.000000000000000000 ) ) ;
#241 = DIRECTION ( 'NONE',  ( -1.000000000000000000, -0.0000000000000000000, -0.0000000000000000000 ) ) ;
#242 = VERTEX_POINT ( 'NONE', #190 ) ;
#243 = AXIS2_PLACEMENT_3D ( 'NONE', #39, #259, #10 ) ;
#244 = CARTESIAN_POINT ( 'NONE',  ( 1160.658823696084000, 0.0000000000000000000, 0.0000000000000000000 ) ) ;
#245 = EDGE_CURVE ( 'NONE', #51, #175, #32, .T. ) ;
#246 = ORIENTED_EDGE ( 'NONE', *, *, #161, .T. ) ;
#247 = CARTESIAN_POINT ( 'NONE',  ( 0.0000000000000000000, 0.0000000000000000000, 0.0000000000000000000 ) ) ;
#248 =( GEOMETRIC_REPRESENTATION_CONTEXT ( 3 ) GLOBAL_UNCERTAINTY_ASSIGNED_CONTEXT ( ( #298 ) ) GLOBAL_UNIT_ASSIGNED_CONTEXT ( ( #117, #219, #261 ) ) REPRESENTATION_CONTEXT ( 'NONE', 'WORKASPACE' ) );
#249 = DIRECTION ( 'NONE',  ( 0.0000000000000000000, -1.000000000000000000, 0.0000000000000000000 ) ) ;
#250 = VERTEX_POINT ( 'NONE', #158 ) ;
#251 = DIRECTION ( 'NONE',  ( 0.0000000000000000000, 1.000000000000000000, 0.0000000000000000000 ) ) ;
#252 = CARTESIAN_POINT ( 'NONE',  ( -80.06605684262751800, 3.110602869834273700E-015, -25.39999999999997700 ) ) ;
#253 = ADVANCED_FACE ( 'NONE', ( #72 ), #24, .T. ) ;
#254 = AXIS2_PLACEMENT_3D ( 'NONE', #70, #287, #12 ) ;
#255 = DIRECTION ( 'NONE',  ( -1.000000000000000000, -0.0000000000000000000, -0.0000000000000000000 ) ) ;
#256 = DIRECTION ( 'NONE',  ( -1.000000000000000000, -0.0000000000000000000, -0.0000000000000000000 ) ) ;
#257 = CARTESIAN_POINT ( 'NONE',  ( 36.75882369608332600, 0.0000000000000000000, -8.101075252370286000E-015 ) ) ;
#258 = DIRECTION ( 'NONE',  ( -1.000000000000000000, -0.0000000000000000000, -0.0000000000000000000 ) ) ;
#259 = DIRECTION ( 'NONE',  ( 0.0000000000000000000, -1.000000000000000000, -1.224646799147353200E-016 ) ) ;
#260 = EDGE_CURVE ( 'NONE', #135, #175, #155, .T. ) ;
#261 =( NAMED_UNIT ( * ) SI_UNIT ( $, .STERADIAN. ) SOLID_ANGLE_UNIT ( ) );
#262 = DIRECTION ( 'NONE',  ( -1.000000000000000000, -0.0000000000000000000, -0.0000000000000000000 ) ) ;
#263 = ORIENTED_EDGE ( 'NONE', *, *, #20, .F. ) ;
#264 = AXIS2_PLACEMENT_3D ( 'NONE', #108, #25, #224 ) ;
#265 = DIRECTION ( 'NONE',  ( 0.0000000000000000000, 0.0000000000000000000, -1.000000000000000000 ) ) ;
#266 = EDGE_CURVE ( 'NONE', #341, #250, #21, .T. ) ;
#267 = CARTESIAN_POINT ( 'NONE',  ( -223.9411763039183300, 0.0000000000000000000, -7.155734338404329300E-015 ) ) ;
#268 = SPHERICAL_SURFACE ( 'NONE', #109, 121.2000000000000200 ) ;
#269 = AXIS2_PLACEMENT_3D ( 'NONE', #244, #153, #57 ) ;
#270 = MANIFOLD_SOLID_BREP ( 'Ðý×ª1', #134 ) ;
#271 = ORIENTED_EDGE ( 'NONE', *, *, #107, .F. ) ;
#272 = EDGE_LOOP ( 'NONE', ( #178, #327, #171, #198 ) ) ;
#273 = APPLICATION_PROTOCOL_DEFINITION ( 'draft international standard', 'automotive_design', 1998, #81 ) ;
#274 = EDGE_CURVE ( 'NONE', #157, #97, #188, .T. ) ;
#275 = SPHERICAL_SURFACE ( 'NONE', #264, 121.2000000000000200 ) ;
#276 = EDGE_CURVE ( 'NONE', #97, #175, #301, .T. ) ;
#277 = CARTESIAN_POINT ( 'NONE',  ( -223.9411763039183300, 0.0000000000000000000, -7.155734338404329300E-015 ) ) ;
#278 = SURFACE_STYLE_USAGE ( .BOTH. , #201 ) ;
#279 = ORIENTED_EDGE ( 'NONE', *, *, #260, .F. ) ;
#280 = CARTESIAN_POINT ( 'NONE',  ( -402.0212655728769300, 0.0000000000000000000, 0.0000000000000000000 ) ) ;
#281 = ORIENTED_EDGE ( 'NONE', *, *, #206, .T. ) ;
#282 = CARTESIAN_POINT ( 'NONE',  ( 36.75882369608332600, 0.0000000000000000000, -8.101075252370286000E-015 ) ) ;
#283 = STYLED_ITEM ( 'NONE', ( #186 ), #323 ) ;
#284 = ADVANCED_FACE ( 'NONE', ( #76 ), #27, .F. ) ;
#285 = EDGE_CURVE ( 'NONE', #55, #341, #345, .T. ) ;
#286 = ORIENTED_EDGE ( 'NONE', *, *, #317, .T. ) ;
#287 = DIRECTION ( 'NONE',  ( -1.000000000000000000, -0.0000000000000000000, -0.0000000000000000000 ) ) ;
#288 = FACE_OUTER_BOUND ( 'NONE', #272, .T. ) ;
#289 =( NAMED_UNIT ( * ) PLANE_ANGLE_UNIT ( ) SI_UNIT ( $, .RADIAN. ) );
#290 = EDGE_LOOP ( 'NONE', ( #58, #230, #246 ) ) ;
#291 = AXIS2_PLACEMENT_3D ( 'NONE', #331, #46, #43 ) ;
#292 = DIRECTION ( 'NONE',  ( 0.0000000000000000000, 0.0000000000000000000, 1.000000000000000000 ) ) ;
#293 = ORIENTED_EDGE ( 'NONE', *, *, #276, .F. ) ;
#294 = UNCERTAINTY_MEASURE_WITH_UNIT (LENGTH_MEASURE( 1.000000000000000100E-005 ), #151, 'distance_accuracy_value', 'NONE');
#295 = AXIS2_PLACEMENT_3D ( 'NONE', #257, #68, #40 ) ;
#296 = SURFACE_SIDE_STYLE ('',( #84 ) ) ;
#297 = ORIENTED_EDGE ( 'NONE', *, *, #217, .F. ) ;
#298 = UNCERTAINTY_MEASURE_WITH_UNIT (LENGTH_MEASURE( 1.000000000000000100E-005 ), #117, 'distance_accuracy_value', 'NONE');
#299 = PRESENTATION_LAYER_ASSIGNMENT (  '', '', ( #283 ) ) ;
#300 = ORIENTED_EDGE ( 'NONE', *, *, #317, .F. ) ;
#301 = LINE ( 'NONE', #6, #159 ) ;
#302 = CYLINDRICAL_SURFACE ( 'NONE', #13, 25.39999999999995600 ) ;
#303 = DIRECTION ( 'NONE',  ( 0.0000000000000000000, -1.224646799147353500E-016, 1.000000000000000000 ) ) ;
#304 = ORIENTED_EDGE ( 'NONE', *, *, #206, .F. ) ;
#305 = AXIS2_PLACEMENT_3D ( 'NONE', #87, #169, #31 ) ;
#306 = CARTESIAN_POINT ( 'NONE',  ( -74.98014056491730600, 0.0000000000000000000, 0.0000000000000000000 ) ) ;
#307 = CARTESIAN_POINT ( 'NONE',  ( -223.9411763039183300, 0.0000000000000000000, -7.155734338404329300E-015 ) ) ;
#308 = CARTESIAN_POINT ( 'NONE',  ( -80.06605684262751800, 0.0000000000000000000, 0.0000000000000000000 ) ) ;
#309 = CARTESIAN_POINT ( 'NONE',  ( 1160.658823696084000, 0.0000000000000000000, 0.0000000000000000000 ) ) ;
#310 = EDGE_LOOP ( 'NONE', ( #221, #59, #236 ) ) ;
#311 = DIRECTION ( 'NONE',  ( -1.000000000000000000, -0.0000000000000000000, -0.0000000000000000000 ) ) ;
#312 = AXIS2_PLACEMENT_3D ( 'NONE', #308, #241, #3 ) ;
#313 = FILL_AREA_STYLE_COLOUR ( '', #343 ) ;
#314 = DIRECTION ( 'NONE',  ( -0.0000000000000000000, -1.000000000000000000, -0.0000000000000000000 ) ) ;
#315 = MECHANICAL_DESIGN_GEOMETRIC_PRESENTATION_REPRESENTATION (  '', ( #283 ), #330 ) ;
#316 = ORIENTED_EDGE ( 'NONE', *, *, #137, .F. ) ;
#317 = EDGE_CURVE ( 'NONE', #250, #341, #344, .T. ) ;
#318 = AXIS2_PLACEMENT_3D ( 'NONE', #307, #218, #192 ) ;
#319 = VERTEX_POINT ( 'NONE', #208 ) ;
#320 = ADVANCED_FACE ( 'NONE', ( #33 ), #275, .T. ) ;
#321 = DIRECTION ( 'NONE',  ( -1.000000000000000000, -0.0000000000000000000, -0.0000000000000000000 ) ) ;
#322 = AXIS2_PLACEMENT_3D ( 'NONE', #325, #321, #163 ) ;
#323 = MANIFOLD_SOLID_BREP ( 'Ðý×ª3', #92 ) ;
#324 = CARTESIAN_POINT ( 'NONE',  ( -223.9411763039183300, 0.0000000000000000000, -7.155734338404329300E-015 ) ) ;
#325 = CARTESIAN_POINT ( 'NONE',  ( -80.06605684262751800, 0.0000000000000000000, 0.0000000000000000000 ) ) ;
#326 = CARTESIAN_POINT ( 'NONE',  ( -80.06605684262751800, 0.0000000000000000000, 25.39999999999997000 ) ) ;
#327 = ORIENTED_EDGE ( 'NONE', *, *, #137, .T. ) ;
#328 =( NAMED_UNIT ( * ) SI_UNIT ( $, .STERADIAN. ) SOLID_ANGLE_UNIT ( ) );
#329 = ORIENTED_EDGE ( 'NONE', *, *, #5, .F. ) ;
#330 =( GEOMETRIC_REPRESENTATION_CONTEXT ( 3 ) GLOBAL_UNCERTAINTY_ASSIGNED_CONTEXT ( ( #172 ) ) GLOBAL_UNIT_ASSIGNED_CONTEXT ( ( #88, #289, #47 ) ) REPRESENTATION_CONTEXT ( 'NONE', 'WORKASPACE' ) );
#331 = CARTESIAN_POINT ( 'NONE',  ( -223.9411763039183300, 0.0000000000000000000, -7.155734338404329300E-015 ) ) ;
#332 = CARTESIAN_POINT ( 'NONE',  ( -151.1284751181453600, 0.0000000000000000000, 0.0000000000000000000 ) ) ;
#333 = FILL_AREA_STYLE_COLOUR ( '', #105 ) ;
#334 = DIRECTION ( 'NONE',  ( -1.000000000000000000, -0.0000000000000000000, -0.0000000000000000000 ) ) ;
#335 = VERTEX_POINT ( 'NONE', #110 ) ;
#336 = UNCERTAINTY_MEASURE_WITH_UNIT (LENGTH_MEASURE( 1.000000000000000100E-005 ), #119, 'distance_accuracy_value', 'NONE');
#337 = SURFACE_STYLE_FILL_AREA ( #103 ) ;
#338 = EDGE_LOOP ( 'NONE', ( #293, #141, #226, #346 ) ) ;
#339 = AXIS2_PLACEMENT_3D ( 'NONE', #130, #129, #303 ) ;
#340 = ADVANCED_FACE ( 'NONE', ( #227 ), #144, .F. ) ;
#341 = VERTEX_POINT ( 'NONE', #223 ) ;
#342 = AXIS2_PLACEMENT_3D ( 'NONE', #267, #347, #75 ) ;
#343 = COLOUR_RGB ( '',1.000000000000000000, 1.000000000000000000, 1.000000000000000000 ) ;
#344 = CIRCLE ( 'NONE', #222, 25.39999999999999100 ) ;
#345 = LINE ( 'NONE', #95, #177 ) ;
#346 = ORIENTED_EDGE ( 'NONE', *, *, #161, .F. ) ;
#347 = DIRECTION ( 'NONE',  ( 0.0000000000000000000, 1.000000000000000000, 0.0000000000000000000 ) ) ;
ENDSEC;
END-ISO-10303-21;
