ISO-10303-21;
HEADER;
FILE_DESCRIPTION (( 'STEP AP214' ),
    '1' );
FILE_NAME ('145139.STEP',
    '2019-06-05T03:32:03',
    ( 'user' ),
    ( 'Î¢ÈíÖÐ¹ú' ),
    'SwSTEP 2.0',
    'SolidWorks 2016',
    '' );
FILE_SCHEMA (( 'AUTOMOTIVE_DESIGN' ));
ENDSEC;

DATA;
#1 = CIRCLE ( 'NONE', #185, 201.8000000000001300 ) ;
#2 = DIRECTION ( 'NONE',  ( -0.0000000000000000000, 1.000000000000000000, 1.224646799147353200E-016 ) ) ;
#3 = AXIS2_PLACEMENT_3D ( 'NONE', #39, #301, #278 ) ;
#4 = DIRECTION ( 'NONE',  ( 0.0000000000000000000, 1.000000000000000000, 0.0000000000000000000 ) ) ;
#5 = CARTESIAN_POINT ( 'NONE',  ( 814.4805592743229000, 0.0000000000000000000, -8.601019035260871200E-015 ) ) ;
#6 =( NAMED_UNIT ( * ) PLANE_ANGLE_UNIT ( ) SI_UNIT ( $, .RADIAN. ) );
#7 = SPHERICAL_SURFACE ( 'NONE', #152, 161.5000000000000300 ) ;
#8 = FILL_AREA_STYLE_COLOUR ( '', #126 ) ;
#9 = DIRECTION ( 'NONE',  ( 0.0000000000000000000, 0.0000000000000000000, 1.000000000000000000 ) ) ;
#10 = CARTESIAN_POINT ( 'NONE',  ( 621.8805592743232200, 0.0000000000000000000, 4.653657836759942600E-014 ) ) ;
#11 = SURFACE_STYLE_FILL_AREA ( #322 ) ;
#12 = SPHERICAL_SURFACE ( 'NONE', #183, 161.5000000000000300 ) ;
#13 = SPHERICAL_SURFACE ( 'NONE', #158, 201.8000000000001300 ) ;
#14 =( GEOMETRIC_REPRESENTATION_CONTEXT ( 3 ) GLOBAL_UNCERTAINTY_ASSIGNED_CONTEXT ( ( #310 ) ) GLOBAL_UNIT_ASSIGNED_CONTEXT ( ( #288, #306, #150 ) ) REPRESENTATION_CONTEXT ( 'NONE', 'WORKASPACE' ) );
#15 = SPHERICAL_SURFACE ( 'NONE', #284, 760.0000000000000000 ) ;
#16 = FACE_OUTER_BOUND ( 'NONE', #143, .T. ) ;
#17 = ORIENTED_EDGE ( 'NONE', *, *, #107, .T. ) ;
#18 = PRESENTATION_LAYER_ASSIGNMENT (  '', '', ( #151 ) ) ;
#19 = CARTESIAN_POINT ( 'NONE',  ( 614.2854544390646700, 0.0000000000000000000, 0.0000000000000000000 ) ) ;
#20 = PRESENTATION_STYLE_ASSIGNMENT (( #332 ) ) ;
#21 = CIRCLE ( 'NONE', #202, 25.39999999999994200 ) ;
#22 = EDGE_LOOP ( 'NONE', ( #142, #315, #67 ) ) ;
#23 = FACE_OUTER_BOUND ( 'NONE', #48, .T. ) ;
#24 = ADVANCED_FACE ( 'NONE', ( #253 ), #7, .T. ) ;
#25 = SURFACE_SIDE_STYLE ('',( #345 ) ) ;
#26 = COLOUR_RGB ( '',1.000000000000000000, 1.000000000000000000, 1.000000000000000000 ) ;
#27 = DIRECTION ( 'NONE',  ( 0.0000000000000000000, 0.0000000000000000000, 1.000000000000000000 ) ) ;
#28 = CARTESIAN_POINT ( 'NONE',  ( 617.2706530105799600, 0.0000000000000000000, 0.0000000000000000000 ) ) ;
#29 = DIRECTION ( 'NONE',  ( 0.0000000000000000000, 0.0000000000000000000, 1.000000000000000000 ) ) ;
#30 = ORIENTED_EDGE ( 'NONE', *, *, #248, .T. ) ;
#31 = AXIS2_PLACEMENT_3D ( 'NONE', #162, #90, #34 ) ;
#32 = DIRECTION ( 'NONE',  ( 0.0000000000000000000, 1.000000000000000000, 0.0000000000000000000 ) ) ;
#33 = CARTESIAN_POINT ( 'NONE',  ( 621.4559933162621500, 0.0000000000000000000, 0.0000000000000000000 ) ) ;
#34 = DIRECTION ( 'NONE',  ( 0.0000000000000000000, -1.224646799147353500E-016, 1.000000000000000000 ) ) ;
#35 = DIRECTION ( 'NONE',  ( 0.0000000000000000000, -1.224646799147353200E-016, 1.000000000000000000 ) ) ;
#36 = PRODUCT_DEFINITION_CONTEXT ( 'detailed design', #210, 'design' ) ;
#37 = CIRCLE ( 'NONE', #274, 25.39999999999998800 ) ;
#38 = AXIS2_PLACEMENT_3D ( 'NONE', #145, #2, #35 ) ;
#39 = CARTESIAN_POINT ( 'NONE',  ( 124.5233095260452400, 0.0000000000000000000, 0.0000000000000000000 ) ) ;
#40 = EDGE_LOOP ( 'NONE', ( #225, #58, #88 ) ) ;
#41 = ORIENTED_EDGE ( 'NONE', *, *, #131, .T. ) ;
#42 = DIRECTION ( 'NONE',  ( 0.0000000000000000000, -1.000000000000000000, 0.0000000000000000000 ) ) ;
#43 = UNCERTAINTY_MEASURE_WITH_UNIT (LENGTH_MEASURE( 1.000000000000000100E-005 ), #312, 'distance_accuracy_value', 'NONE');
#44 = AXIS2_PLACEMENT_3D ( 'NONE', #346, #299, #178 ) ;
#45 = CLOSED_SHELL ( 'NONE', ( #314, #105, #53, #260, #128, #213 ) ) ;
#46 = EDGE_CURVE ( 'NONE', #337, #283, #111, .T. ) ;
#47 = ORIENTED_EDGE ( 'NONE', *, *, #248, .F. ) ;
#48 = EDGE_LOOP ( 'NONE', ( #207, #329, #72 ) ) ;
#49 = CARTESIAN_POINT ( 'NONE',  ( 621.4559933162621500, 3.110602869834271300E-015, -25.39999999999994200 ) ) ;
#50 =( LENGTH_UNIT ( ) NAMED_UNIT ( * ) SI_UNIT ( .MILLI., .METRE. ) );
#51 = MECHANICAL_DESIGN_GEOMETRIC_PRESENTATION_REPRESENTATION (  '', ( #151 ), #14 ) ;
#52 = COLOUR_RGB ( '',1.000000000000000000, 1.000000000000000000, 1.000000000000000000 ) ;
#53 = ADVANCED_FACE ( 'NONE', ( #23 ), #12, .F. ) ;
#54 = DIRECTION ( 'NONE',  ( 0.0000000000000000000, 0.0000000000000000000, 1.000000000000000000 ) ) ;
#55 = DIRECTION ( 'NONE',  ( 0.0000000000000000000, 1.000000000000000000, 0.0000000000000000000 ) ) ;
#56 = CYLINDRICAL_SURFACE ( 'NONE', #227, 25.39999999999996300 ) ;
#57 = DIRECTION ( 'NONE',  ( 0.0000000000000000000, 1.000000000000000000, 0.0000000000000000000 ) ) ;
#58 = ORIENTED_EDGE ( 'NONE', *, *, #119, .T. ) ;
#59 = AXIS2_PLACEMENT_3D ( 'NONE', #136, #60, #103 ) ;
#60 = DIRECTION ( 'NONE',  ( 0.0000000000000000000, -1.000000000000000000, 0.0000000000000000000 ) ) ;
#61 = CARTESIAN_POINT ( 'NONE',  ( 457.7805592743230200, 0.0000000000000000000, -6.453996819439198100E-015 ) ) ;
#62 = DIRECTION ( 'NONE',  ( 0.0000000000000000000, -1.000000000000000000, 0.0000000000000000000 ) ) ;
#63 = CARTESIAN_POINT ( 'NONE',  ( -138.1194407256768400, 0.0000000000000000000, 0.0000000000000000000 ) ) ;
#64 = ORIENTED_EDGE ( 'NONE', *, *, #172, .F. ) ;
#65 = AXIS2_PLACEMENT_3D ( 'NONE', #189, #62, #255 ) ;
#66 = EDGE_CURVE ( 'NONE', #166, #283, #37, .T. ) ;
#67 = ORIENTED_EDGE ( 'NONE', *, *, #222, .F. ) ;
#68 = FILL_AREA_STYLE ('',( #8 ) ) ;
#69 = DIRECTION ( 'NONE',  ( -1.000000000000000000, -0.0000000000000000000, -0.0000000000000000000 ) ) ;
#70 = ADVANCED_BREP_SHAPE_REPRESENTATION ( '145139', ( #232, #223, #266 ), #256 ) ;
#71 = CIRCLE ( 'NONE', #31, 161.5000000000000300 ) ;
#72 = ORIENTED_EDGE ( 'NONE', *, *, #317, .T. ) ;
#73 = CARTESIAN_POINT ( 'NONE',  ( 612.6805592743228300, 0.0000000000000000000, 3.755667168135930600E-015 ) ) ;
#74 = DIRECTION ( 'NONE',  ( 0.0000000000000000000, 0.0000000000000000000, 1.000000000000000000 ) ) ;
#75 = DIRECTION ( 'NONE',  ( -1.000000000000000000, -0.0000000000000000000, -0.0000000000000000000 ) ) ;
#76 = DIRECTION ( 'NONE',  ( -1.000000000000000000, -0.0000000000000000000, -0.0000000000000000000 ) ) ;
#77 = DIRECTION ( 'NONE',  ( 0.0000000000000000000, 0.0000000000000000000, 1.000000000000000000 ) ) ;
#78 = ORIENTED_EDGE ( 'NONE', *, *, #87, .F. ) ;
#79 = ORIENTED_EDGE ( 'NONE', *, *, #46, .F. ) ;
#80 = PRODUCT ( '145139', '145139', '', ( #159 ) ) ;
#81 = STYLED_ITEM ( 'NONE', ( #342 ), #232 ) ;
#82 = CARTESIAN_POINT ( 'NONE',  ( 457.7805592743230200, 0.0000000000000000000, -6.453996819439198100E-015 ) ) ;
#83 = ORIENTED_EDGE ( 'NONE', *, *, #96, .F. ) ;
#84 = VERTEX_POINT ( 'NONE', #124 ) ;
#85 = ADVANCED_FACE ( 'NONE', ( #182 ), #13, .T. ) ;
#86 = AXIS2_PLACEMENT_3D ( 'NONE', #277, #167, #197 ) ;
#87 = EDGE_CURVE ( 'NONE', #102, #337, #216, .T. ) ;
#88 = ORIENTED_EDGE ( 'NONE', *, *, #172, .T. ) ;
#89 = CARTESIAN_POINT ( 'NONE',  ( 457.7805592743230200, 0.0000000000000000000, -6.453996819439198100E-015 ) ) ;
#90 = DIRECTION ( 'NONE',  ( -0.0000000000000000000, 1.000000000000000000, 1.224646799147353200E-016 ) ) ;
#91 = FACE_OUTER_BOUND ( 'NONE', #293, .T. ) ;
#92 = DIRECTION ( 'NONE',  ( 1.000000000000000000, 0.0000000000000000000, 0.0000000000000000000 ) ) ;
#93 = ORIENTED_EDGE ( 'NONE', *, *, #240, .F. ) ;
#94 = PRODUCT_RELATED_PRODUCT_CATEGORY ( 'part', '', ( #80 ) ) ;
#95 = CARTESIAN_POINT ( 'NONE',  ( -0.5519199926577972300, 0.0000000000000000000, 0.0000000000000000000 ) ) ;
#96 = EDGE_CURVE ( 'NONE', #283, #166, #187, .T. ) ;
#97 = SURFACE_STYLE_USAGE ( .BOTH. , #25 ) ;
#98 = ORIENTED_EDGE ( 'NONE', *, *, #87, .T. ) ;
#99 = VERTEX_POINT ( 'NONE', #339 ) ;
#100 = CARTESIAN_POINT ( 'NONE',  ( -0.5519199926577972300, 0.0000000000000000000, 25.39999999999996300 ) ) ;
#101 =( GEOMETRIC_REPRESENTATION_CONTEXT ( 3 ) GLOBAL_UNCERTAINTY_ASSIGNED_CONTEXT ( ( #130 ) ) GLOBAL_UNIT_ASSIGNED_CONTEXT ( ( #327, #291, #326 ) ) REPRESENTATION_CONTEXT ( 'NONE', 'WORKASPACE' ) );
#102 = VERTEX_POINT ( 'NONE', #308 ) ;
#103 = DIRECTION ( 'NONE',  ( 0.0000000000000000000, 0.0000000000000000000, -1.000000000000000000 ) ) ;
#104 = CARTESIAN_POINT ( 'NONE',  ( 614.2854544390646700, 0.0000000000000000000, 0.0000000000000000000 ) ) ;
#105 = ADVANCED_FACE ( 'NONE', ( #147 ), #137, .T. ) ;
#106 = CARTESIAN_POINT ( 'NONE',  ( 814.4805592743229000, 0.0000000000000000000, -8.601019035260871200E-015 ) ) ;
#107 = EDGE_CURVE ( 'NONE', #166, #238, #1, .T. ) ;
#108 = ORIENTED_EDGE ( 'NONE', *, *, #257, .F. ) ;
#109 = CARTESIAN_POINT ( 'NONE',  ( 0.0000000000000000000, 0.0000000000000000000, 0.0000000000000000000 ) ) ;
#110 = DIRECTION ( 'NONE',  ( 0.0000000000000000000, 0.0000000000000000000, 1.000000000000000000 ) ) ;
#111 = LINE ( 'NONE', #303, #281 ) ;
#112 = SURFACE_SIDE_STYLE ('',( #132 ) ) ;
#113 = DIRECTION ( 'NONE',  ( -1.000000000000000000, -0.0000000000000000000, -0.0000000000000000000 ) ) ;
#114 = CARTESIAN_POINT ( 'NONE',  ( 457.7805592743230200, 0.0000000000000000000, -6.453996819439198100E-015 ) ) ;
#115 = DIRECTION ( 'NONE',  ( -0.0000000000000000000, 1.000000000000000000, 1.224646799147353200E-016 ) ) ;
#116 = AXIS2_PLACEMENT_3D ( 'NONE', #89, #57, #169 ) ;
#117 = ORIENTED_EDGE ( 'NONE', *, *, #231, .T. ) ;
#118 = DIRECTION ( 'NONE',  ( 0.0000000000000000000, 0.0000000000000000000, -1.000000000000000000 ) ) ;
#119 = EDGE_CURVE ( 'NONE', #84, #99, #323, .T. ) ;
#120 = EDGE_CURVE ( 'NONE', #226, #337, #71, .T. ) ;
#121 = DIRECTION ( 'NONE',  ( 0.0000000000000000000, 0.0000000000000000000, 1.000000000000000000 ) ) ;
#122 =( NAMED_UNIT ( * ) PLANE_ANGLE_UNIT ( ) SI_UNIT ( $, .RADIAN. ) );
#123 = CYLINDRICAL_SURFACE ( 'NONE', #3, 25.39999999999998800 ) ;
#124 = CARTESIAN_POINT ( 'NONE',  ( 619.2805592743230800, 0.0000000000000000000, 3.435026083675682000E-015 ) ) ;
#125 = AXIS2_PLACEMENT_3D ( 'NONE', #241, #316, #27 ) ;
#126 = COLOUR_RGB ( '',1.000000000000000000, 1.000000000000000000, 1.000000000000000000 ) ;
#127 = LINE ( 'NONE', #254, #146 ) ;
#128 = ADVANCED_FACE ( 'NONE', ( #176 ), #56, .T. ) ;
#129 = AXIS2_PLACEMENT_3D ( 'NONE', #270, #115, #298 ) ;
#130 = UNCERTAINTY_MEASURE_WITH_UNIT (LENGTH_MEASURE( 1.000000000000000100E-005 ), #327, 'distance_accuracy_value', 'NONE');
#131 = EDGE_CURVE ( 'NONE', #102, #166, #127, .T. ) ;
#132 = SURFACE_STYLE_FILL_AREA ( #68 ) ;
#133 = ORIENTED_EDGE ( 'NONE', *, *, #222, .T. ) ;
#134 = DIRECTION ( 'NONE',  ( -1.000000000000000000, -0.0000000000000000000, -0.0000000000000000000 ) ) ;
#135 = DIRECTION ( 'NONE',  ( 0.0000000000000000000, 0.0000000000000000000, 1.000000000000000000 ) ) ;
#136 = CARTESIAN_POINT ( 'NONE',  ( 457.7805592743230200, 0.0000000000000000000, -6.453996819439198100E-015 ) ) ;
#137 = CYLINDRICAL_SURFACE ( 'NONE', #125, 25.39999999999996300 ) ;
#138 = AXIS2_PLACEMENT_3D ( 'NONE', #19, #134, #271 ) ;
#139 = PRESENTATION_STYLE_ASSIGNMENT (( #287 ) ) ;
#140 = ORIENTED_EDGE ( 'NONE', *, *, #107, .F. ) ;
#141 = EDGE_CURVE ( 'NONE', #84, #275, #237, .T. ) ;
#142 = ORIENTED_EDGE ( 'NONE', *, *, #120, .F. ) ;
#143 = EDGE_LOOP ( 'NONE', ( #319, #269, #247 ) ) ;
#144 = DIRECTION ( 'NONE',  ( 0.0000000000000000000, 0.0000000000000000000, 1.000000000000000000 ) ) ;
#145 = CARTESIAN_POINT ( 'NONE',  ( -138.1194407256768400, 0.0000000000000000000, 0.0000000000000000000 ) ) ;
#146 = VECTOR ( 'NONE', #285, 1000.000000000000000 ) ;
#147 = FACE_OUTER_BOUND ( 'NONE', #282, .T. ) ;
#148 = EDGE_LOOP ( 'NONE', ( #108, #211, #30, #290 ) ) ;
#149 = ORIENTED_EDGE ( 'NONE', *, *, #257, .T. ) ;
#150 =( NAMED_UNIT ( * ) SI_UNIT ( $, .STERADIAN. ) SOLID_ANGLE_UNIT ( ) );
#151 = STYLED_ITEM ( 'NONE', ( #139 ), #70 ) ;
#152 = AXIS2_PLACEMENT_3D ( 'NONE', #157, #296, #265 ) ;
#153 = EDGE_CURVE ( 'NONE', #297, #330, #333, .T. ) ;
#154 = CARTESIAN_POINT ( 'NONE',  ( 124.5233095260452400, 0.0000000000000000000, 0.0000000000000000000 ) ) ;
#155 = CARTESIAN_POINT ( 'NONE',  ( 617.2706530105799600, 0.0000000000000000000, 0.0000000000000000000 ) ) ;
#156 = ORIENTED_EDGE ( 'NONE', *, *, #215, .F. ) ;
#157 = CARTESIAN_POINT ( 'NONE',  ( 457.7805592743230200, 0.0000000000000000000, -6.453996819439198100E-015 ) ) ;
#158 = AXIS2_PLACEMENT_3D ( 'NONE', #177, #186, #135 ) ;
#159 = PRODUCT_CONTEXT ( 'NONE', #203, 'mechanical' ) ;
#160 = CIRCLE ( 'NONE', #38, 760.0000000000000000 ) ;
#161 = EDGE_LOOP ( 'NONE', ( #258, #289, #156 ) ) ;
#162 = CARTESIAN_POINT ( 'NONE',  ( 457.7805592743230200, 0.0000000000000000000, -6.453996819439198100E-015 ) ) ;
#163 = DIRECTION ( 'NONE',  ( -1.000000000000000000, -0.0000000000000000000, -0.0000000000000000000 ) ) ;
#164 = DIRECTION ( 'NONE',  ( -1.000000000000000000, -0.0000000000000000000, -0.0000000000000000000 ) ) ;
#165 = AXIS2_PLACEMENT_3D ( 'NONE', #344, #239, #249 ) ;
#166 = VERTEX_POINT ( 'NONE', #295 ) ;
#167 = DIRECTION ( 'NONE',  ( -0.0000000000000000000, 1.000000000000000000, 1.224646799147353200E-016 ) ) ;
#168 = MECHANICAL_DESIGN_GEOMETRIC_PRESENTATION_REPRESENTATION (  '', ( #81 ), #101 ) ;
#169 = DIRECTION ( 'NONE',  ( 0.0000000000000000000, 0.0000000000000000000, 1.000000000000000000 ) ) ;
#170 = FACE_OUTER_BOUND ( 'NONE', #161, .T. ) ;
#171 = FACE_OUTER_BOUND ( 'NONE', #263, .T. ) ;
#172 = EDGE_CURVE ( 'NONE', #99, #275, #280, .T. ) ;
#173 = ORIENTED_EDGE ( 'NONE', *, *, #120, .T. ) ;
#174 = FACE_OUTER_BOUND ( 'NONE', #309, .T. ) ;
#175 = CLOSED_SHELL ( 'NONE', ( #24, #235, #85, #343, #181, #292 ) ) ;
#176 = FACE_OUTER_BOUND ( 'NONE', #148, .T. ) ;
#177 = CARTESIAN_POINT ( 'NONE',  ( 814.4805592743229000, 0.0000000000000000000, -8.601019035260871200E-015 ) ) ;
#178 = DIRECTION ( 'NONE',  ( 0.0000000000000000000, 0.0000000000000000000, 1.000000000000000000 ) ) ;
#179 = SPHERICAL_SURFACE ( 'NONE', #335, 201.8000000000001300 ) ;
#180 = CIRCLE ( 'NONE', #86, 201.8000000000001300 ) ;
#181 = ADVANCED_FACE ( 'NONE', ( #91 ), #123, .T. ) ;
#182 = FACE_OUTER_BOUND ( 'NONE', #336, .T. ) ;
#183 = AXIS2_PLACEMENT_3D ( 'NONE', #82, #311, #110 ) ;
#184 = CARTESIAN_POINT ( 'NONE',  ( 621.4559933162621500, 0.0000000000000000000, 25.39999999999994200 ) ) ;
#185 = AXIS2_PLACEMENT_3D ( 'NONE', #106, #228, #118 ) ;
#186 = DIRECTION ( 'NONE',  ( 0.0000000000000000000, 1.000000000000000000, 0.0000000000000000000 ) ) ;
#187 = CIRCLE ( 'NONE', #138, 25.39999999999998800 ) ;
#188 = UNCERTAINTY_MEASURE_WITH_UNIT (LENGTH_MEASURE( 1.000000000000000100E-005 ), #50, 'distance_accuracy_value', 'NONE');
#189 = CARTESIAN_POINT ( 'NONE',  ( -138.1194407256768400, 0.0000000000000000000, 0.0000000000000000000 ) ) ;
#190 = AXIS2_PLACEMENT_3D ( 'NONE', #28, #75, #121 ) ;
#191 = DIRECTION ( 'NONE',  ( 0.0000000000000000000, 0.0000000000000000000, 1.000000000000000000 ) ) ;
#192 = SHAPE_DEFINITION_REPRESENTATION ( #230, #70 ) ;
#193 = ORIENTED_EDGE ( 'NONE', *, *, #66, .T. ) ;
#194 = FILL_AREA_STYLE_COLOUR ( '', #26 ) ;
#195 = CARTESIAN_POINT ( 'NONE',  ( 614.2854544390646700, 3.110602869834283200E-015, -25.40000000000005500 ) ) ;
#196 = DIRECTION ( 'NONE',  ( -1.000000000000000000, -0.0000000000000000000, -0.0000000000000000000 ) ) ;
#197 = DIRECTION ( 'NONE',  ( 0.0000000000000000000, -1.224646799147353200E-016, 1.000000000000000000 ) ) ;
#198 = ORIENTED_EDGE ( 'NONE', *, *, #215, .T. ) ;
#199 = MECHANICAL_DESIGN_GEOMETRIC_PRESENTATION_REPRESENTATION (  '', ( #221 ), #205 ) ;
#200 = SPHERICAL_SURFACE ( 'NONE', #116, 161.5000000000000300 ) ;
#201 = ORIENTED_EDGE ( 'NONE', *, *, #46, .T. ) ;
#202 = AXIS2_PLACEMENT_3D ( 'NONE', #33, #69, #191 ) ;
#203 = APPLICATION_CONTEXT ( 'automotive_design' ) ;
#204 =( NAMED_UNIT ( * ) SI_UNIT ( $, .STERADIAN. ) SOLID_ANGLE_UNIT ( ) );
#205 =( GEOMETRIC_REPRESENTATION_CONTEXT ( 3 ) GLOBAL_UNCERTAINTY_ASSIGNED_CONTEXT ( ( #43 ) ) GLOBAL_UNIT_ASSIGNED_CONTEXT ( ( #312, #122, #204 ) ) REPRESENTATION_CONTEXT ( 'NONE', 'WORKASPACE' ) );
#206 = EDGE_CURVE ( 'NONE', #338, #297, #160, .T. ) ;
#207 = ORIENTED_EDGE ( 'NONE', *, *, #119, .F. ) ;
#208 =( NAMED_UNIT ( * ) SI_UNIT ( $, .STERADIAN. ) SOLID_ANGLE_UNIT ( ) );
#209 = ORIENTED_EDGE ( 'NONE', *, *, #66, .F. ) ;
#210 = APPLICATION_CONTEXT ( 'automotive_design' ) ;
#211 = ORIENTED_EDGE ( 'NONE', *, *, #153, .T. ) ;
#212 = DIRECTION ( 'NONE',  ( 0.0000000000000000000, 0.0000000000000000000, 1.000000000000000000 ) ) ;
#213 = ADVANCED_FACE ( 'NONE', ( #16 ), #15, .T. ) ;
#214 = DIRECTION ( 'NONE',  ( 0.0000000000000000000, 0.0000000000000000000, 1.000000000000000000 ) ) ;
#215 = EDGE_CURVE ( 'NONE', #330, #297, #21, .T. ) ;
#216 = CIRCLE ( 'NONE', #190, 25.39999999999998800 ) ;
#217 = FACE_OUTER_BOUND ( 'NONE', #22, .T. ) ;
#218 = CARTESIAN_POINT ( 'NONE',  ( 619.2805592743230800, 0.0000000000000000000, 3.435026083675682000E-015 ) ) ;
#219 = AXIS2_PLACEMENT_3D ( 'NONE', #305, #164, #144 ) ;
#220 = CIRCLE ( 'NONE', #307, 25.39999999999998400 ) ;
#221 = STYLED_ITEM ( 'NONE', ( #20 ), #223 ) ;
#222 = EDGE_CURVE ( 'NONE', #337, #102, #340, .T. ) ;
#223 = MANIFOLD_SOLID_BREP ( 'Ðý×ª3', #45 ) ;
#224 = SPHERICAL_SURFACE ( 'NONE', #44, 760.0000000000000000 ) ;
#225 = ORIENTED_EDGE ( 'NONE', *, *, #141, .F. ) ;
#226 = VERTEX_POINT ( 'NONE', #218 ) ;
#227 = AXIS2_PLACEMENT_3D ( 'NONE', #95, #236, #77 ) ;
#228 = DIRECTION ( 'NONE',  ( 0.0000000000000000000, -1.000000000000000000, 0.0000000000000000000 ) ) ;
#229 = FACE_OUTER_BOUND ( 'NONE', #40, .T. ) ;
#230 = PRODUCT_DEFINITION_SHAPE ( 'NONE', 'NONE',  #341 ) ;
#231 = EDGE_CURVE ( 'NONE', #283, #238, #180, .T. ) ;
#232 = MANIFOLD_SOLID_BREP ( 'Ðý×ª1', #175 ) ;
#233 = DIRECTION ( 'NONE',  ( -1.000000000000000000, -0.0000000000000000000, -0.0000000000000000000 ) ) ;
#234 = ORIENTED_EDGE ( 'NONE', *, *, #231, .F. ) ;
#235 = ADVANCED_FACE ( 'NONE', ( #174 ), #267, .T. ) ;
#236 = DIRECTION ( 'NONE',  ( -1.000000000000000000, -0.0000000000000000000, -0.0000000000000000000 ) ) ;
#237 = CIRCLE ( 'NONE', #129, 161.5000000000000300 ) ;
#238 = VERTEX_POINT ( 'NONE', #73 ) ;
#239 = DIRECTION ( 'NONE',  ( -1.000000000000000000, -0.0000000000000000000, -0.0000000000000000000 ) ) ;
#240 = EDGE_CURVE ( 'NONE', #226, #102, #279, .T. ) ;
#241 = CARTESIAN_POINT ( 'NONE',  ( -0.5519199926577972300, 0.0000000000000000000, 0.0000000000000000000 ) ) ;
#242 = SPHERICAL_SURFACE ( 'NONE', #313, 161.5000000000000300 ) ;
#243 = AXIS2_PLACEMENT_3D ( 'NONE', #154, #196, #214 ) ;
#244 = DIRECTION ( 'NONE',  ( 0.0000000000000000000, 0.0000000000000000000, 1.000000000000000000 ) ) ;
#245 = APPLICATION_PROTOCOL_DEFINITION ( 'draft international standard', 'automotive_design', 1998, #203 ) ;
#246 = FILL_AREA_STYLE ('',( #259 ) ) ;
#247 = ORIENTED_EDGE ( 'NONE', *, *, #153, .F. ) ;
#248 = EDGE_CURVE ( 'NONE', #330, #99, #273, .T. ) ;
#249 = DIRECTION ( 'NONE',  ( 0.0000000000000000000, 0.0000000000000000000, 1.000000000000000000 ) ) ;
#250 = ORIENTED_EDGE ( 'NONE', *, *, #131, .F. ) ;
#251 = PRODUCT_DEFINITION_FORMATION_WITH_SPECIFIED_SOURCE ( 'ÈÎºÎ', '', #80, .NOT_KNOWN. ) ;
#252 = VECTOR ( 'NONE', #76, 1000.000000000000000 ) ;
#253 = FACE_OUTER_BOUND ( 'NONE', #264, .T. ) ;
#254 = CARTESIAN_POINT ( 'NONE',  ( 124.5233095260452400, 0.0000000000000000000, 25.39999999999998800 ) ) ;
#255 = DIRECTION ( 'NONE',  ( 0.0000000000000000000, 0.0000000000000000000, -1.000000000000000000 ) ) ;
#256 =( GEOMETRIC_REPRESENTATION_CONTEXT ( 3 ) GLOBAL_UNCERTAINTY_ASSIGNED_CONTEXT ( ( #188 ) ) GLOBAL_UNIT_ASSIGNED_CONTEXT ( ( #50, #6, #208 ) ) REPRESENTATION_CONTEXT ( 'NONE', 'WORKASPACE' ) );
#257 = EDGE_CURVE ( 'NONE', #297, #275, #268, .T. ) ;
#258 = ORIENTED_EDGE ( 'NONE', *, *, #276, .F. ) ;
#259 = FILL_AREA_STYLE_COLOUR ( '', #52 ) ;
#260 = ADVANCED_FACE ( 'NONE', ( #229 ), #242, .F. ) ;
#261 = CIRCLE ( 'NONE', #65, 760.0000000000000000 ) ;
#262 = VECTOR ( 'NONE', #321, 1000.000000000000000 ) ;
#263 = EDGE_LOOP ( 'NONE', ( #234, #320, #17 ) ) ;
#264 = EDGE_LOOP ( 'NONE', ( #93, #173, #78 ) ) ;
#265 = DIRECTION ( 'NONE',  ( 0.0000000000000000000, 0.0000000000000000000, 1.000000000000000000 ) ) ;
#266 = AXIS2_PLACEMENT_3D ( 'NONE', #109, #29, #92 ) ;
#267 = CYLINDRICAL_SURFACE ( 'NONE', #243, 25.39999999999998800 ) ;
#268 = LINE ( 'NONE', #286, #252 ) ;
#269 = ORIENTED_EDGE ( 'NONE', *, *, #276, .T. ) ;
#270 = CARTESIAN_POINT ( 'NONE',  ( 457.7805592743230200, 0.0000000000000000000, -6.453996819439198100E-015 ) ) ;
#271 = DIRECTION ( 'NONE',  ( 0.0000000000000000000, 0.0000000000000000000, 1.000000000000000000 ) ) ;
#272 = APPLICATION_PROTOCOL_DEFINITION ( 'draft international standard', 'automotive_design', 1998, #210 ) ;
#273 = LINE ( 'NONE', #100, #262 ) ;
#274 = AXIS2_PLACEMENT_3D ( 'NONE', #104, #233, #54 ) ;
#275 = VERTEX_POINT ( 'NONE', #334 ) ;
#276 = EDGE_CURVE ( 'NONE', #338, #330, #261, .T. ) ;
#277 = CARTESIAN_POINT ( 'NONE',  ( 814.4805592743229000, 0.0000000000000000000, -8.601019035260871200E-015 ) ) ;
#278 = DIRECTION ( 'NONE',  ( 0.0000000000000000000, 0.0000000000000000000, 1.000000000000000000 ) ) ;
#279 = CIRCLE ( 'NONE', #59, 161.5000000000000300 ) ;
#280 = CIRCLE ( 'NONE', #219, 25.39999999999998400 ) ;
#281 = VECTOR ( 'NONE', #163, 1000.000000000000000 ) ;
#282 = EDGE_LOOP ( 'NONE', ( #198, #149, #64, #47 ) ) ;
#283 = VERTEX_POINT ( 'NONE', #195 ) ;
#284 = AXIS2_PLACEMENT_3D ( 'NONE', #63, #4, #9 ) ;
#285 = DIRECTION ( 'NONE',  ( -1.000000000000000000, -0.0000000000000000000, -0.0000000000000000000 ) ) ;
#286 = CARTESIAN_POINT ( 'NONE',  ( -0.5519199926577972300, 3.110602869834272900E-015, -25.39999999999996300 ) ) ;
#287 = SURFACE_STYLE_USAGE ( .BOTH. , #112 ) ;
#288 =( LENGTH_UNIT ( ) NAMED_UNIT ( * ) SI_UNIT ( .MILLI., .METRE. ) );
#289 = ORIENTED_EDGE ( 'NONE', *, *, #206, .T. ) ;
#290 = ORIENTED_EDGE ( 'NONE', *, *, #317, .F. ) ;
#291 =( NAMED_UNIT ( * ) PLANE_ANGLE_UNIT ( ) SI_UNIT ( $, .RADIAN. ) );
#292 = ADVANCED_FACE ( 'NONE', ( #217 ), #200, .T. ) ;
#293 = EDGE_LOOP ( 'NONE', ( #79, #133, #41, #83 ) ) ;
#294 = AXIS2_PLACEMENT_3D ( 'NONE', #331, #113, #244 ) ;
#295 = CARTESIAN_POINT ( 'NONE',  ( 614.2854544390646700, 0.0000000000000000000, 25.40000000000004800 ) ) ;
#296 = DIRECTION ( 'NONE',  ( 0.0000000000000000000, 1.000000000000000000, 0.0000000000000000000 ) ) ;
#297 = VERTEX_POINT ( 'NONE', #49 ) ;
#298 = DIRECTION ( 'NONE',  ( 0.0000000000000000000, -1.224646799147353500E-016, 1.000000000000000000 ) ) ;
#299 = DIRECTION ( 'NONE',  ( 0.0000000000000000000, 1.000000000000000000, 0.0000000000000000000 ) ) ;
#300 = AXIS2_PLACEMENT_3D ( 'NONE', #61, #42, #324 ) ;
#301 = DIRECTION ( 'NONE',  ( -1.000000000000000000, -0.0000000000000000000, -0.0000000000000000000 ) ) ;
#302 = CARTESIAN_POINT ( 'NONE',  ( 617.2706530105799600, 3.110602869834276100E-015, -25.39999999999998800 ) ) ;
#303 = CARTESIAN_POINT ( 'NONE',  ( 124.5233095260452400, 3.110602869834276100E-015, -25.39999999999998800 ) ) ;
#304 = DIRECTION ( 'NONE',  ( -1.000000000000000000, -0.0000000000000000000, -0.0000000000000000000 ) ) ;
#305 = CARTESIAN_POINT ( 'NONE',  ( 617.2706530105799600, 0.0000000000000000000, 0.0000000000000000000 ) ) ;
#306 =( NAMED_UNIT ( * ) PLANE_ANGLE_UNIT ( ) SI_UNIT ( $, .RADIAN. ) );
#307 = AXIS2_PLACEMENT_3D ( 'NONE', #155, #304, #212 ) ;
#308 = CARTESIAN_POINT ( 'NONE',  ( 617.2706530105799600, 0.0000000000000000000, 25.39999999999998800 ) ) ;
#309 = EDGE_LOOP ( 'NONE', ( #98, #201, #209, #250 ) ) ;
#310 = UNCERTAINTY_MEASURE_WITH_UNIT (LENGTH_MEASURE( 1.000000000000000100E-005 ), #288, 'distance_accuracy_value', 'NONE');
#311 = DIRECTION ( 'NONE',  ( 0.0000000000000000000, 1.000000000000000000, 0.0000000000000000000 ) ) ;
#312 =( LENGTH_UNIT ( ) NAMED_UNIT ( * ) SI_UNIT ( .MILLI., .METRE. ) );
#313 = AXIS2_PLACEMENT_3D ( 'NONE', #114, #55, #74 ) ;
#314 = ADVANCED_FACE ( 'NONE', ( #170 ), #224, .T. ) ;
#315 = ORIENTED_EDGE ( 'NONE', *, *, #240, .T. ) ;
#316 = DIRECTION ( 'NONE',  ( -1.000000000000000000, -0.0000000000000000000, -0.0000000000000000000 ) ) ;
#317 = EDGE_CURVE ( 'NONE', #275, #99, #220, .T. ) ;
#318 = SURFACE_SIDE_STYLE ('',( #11 ) ) ;
#319 = ORIENTED_EDGE ( 'NONE', *, *, #206, .F. ) ;
#320 = ORIENTED_EDGE ( 'NONE', *, *, #96, .T. ) ;
#321 = DIRECTION ( 'NONE',  ( -1.000000000000000000, -0.0000000000000000000, -0.0000000000000000000 ) ) ;
#322 = FILL_AREA_STYLE ('',( #194 ) ) ;
#323 = CIRCLE ( 'NONE', #300, 161.5000000000000300 ) ;
#324 = DIRECTION ( 'NONE',  ( 0.0000000000000000000, 0.0000000000000000000, -1.000000000000000000 ) ) ;
#325 = DIRECTION ( 'NONE',  ( 0.0000000000000000000, 0.0000000000000000000, 1.000000000000000000 ) ) ;
#326 =( NAMED_UNIT ( * ) SI_UNIT ( $, .STERADIAN. ) SOLID_ANGLE_UNIT ( ) );
#327 =( LENGTH_UNIT ( ) NAMED_UNIT ( * ) SI_UNIT ( .MILLI., .METRE. ) );
#328 = PRESENTATION_LAYER_ASSIGNMENT (  '', '', ( #81 ) ) ;
#329 = ORIENTED_EDGE ( 'NONE', *, *, #141, .T. ) ;
#330 = VERTEX_POINT ( 'NONE', #184 ) ;
#331 = CARTESIAN_POINT ( 'NONE',  ( 621.4559933162621500, 0.0000000000000000000, 0.0000000000000000000 ) ) ;
#332 = SURFACE_STYLE_USAGE ( .BOTH. , #318 ) ;
#333 = CIRCLE ( 'NONE', #294, 25.39999999999994200 ) ;
#334 = CARTESIAN_POINT ( 'NONE',  ( 617.2706530105799600, 3.110602869834278400E-015, -25.40000000000001600 ) ) ;
#335 = AXIS2_PLACEMENT_3D ( 'NONE', #5, #32, #325 ) ;
#336 = EDGE_LOOP ( 'NONE', ( #193, #117, #140 ) ) ;
#337 = VERTEX_POINT ( 'NONE', #302 ) ;
#338 = VERTEX_POINT ( 'NONE', #10 ) ;
#339 = CARTESIAN_POINT ( 'NONE',  ( 617.2706530105799600, 0.0000000000000000000, 25.40000000000000900 ) ) ;
#340 = CIRCLE ( 'NONE', #165, 25.39999999999998800 ) ;
#341 = PRODUCT_DEFINITION ( 'Î´Öª', '', #251, #36 ) ;
#342 = PRESENTATION_STYLE_ASSIGNMENT (( #97 ) ) ;
#343 = ADVANCED_FACE ( 'NONE', ( #171 ), #179, .T. ) ;
#344 = CARTESIAN_POINT ( 'NONE',  ( 617.2706530105799600, 0.0000000000000000000, 0.0000000000000000000 ) ) ;
#345 = SURFACE_STYLE_FILL_AREA ( #246 ) ;
#346 = CARTESIAN_POINT ( 'NONE',  ( -138.1194407256768400, 0.0000000000000000000, 0.0000000000000000000 ) ) ;
#347 = PRESENTATION_LAYER_ASSIGNMENT (  '', '', ( #221 ) ) ;
ENDSEC;
END-ISO-10303-21;
