ISO-10303-21;
HEADER;
FILE_DESCRIPTION (( 'STEP AP214' ),
    '1' );
FILE_NAME ('145155.STEP',
    '2019-06-07T02:12:03',
    ( 'user' ),
    ( 'Î¢ÈíÖÐ¹ú' ),
    'SwSTEP 2.0',
    'SolidWorks 2016',
    '' );
FILE_SCHEMA (( 'AUTOMOTIVE_DESIGN' ));
ENDSEC;

DATA;
#1 = CIRCLE ( 'NONE', #126, 6.350000000000003200 ) ;
#2 = SURFACE_STYLE_FILL_AREA ( #16 ) ;
#3 = ADVANCED_FACE ( 'NONE', ( #296 ), #114, .T. ) ;
#4 = CIRCLE ( 'NONE', #108, 6.349999999999995200 ) ;
#5 = EDGE_CURVE ( 'NONE', #112, #342, #317, .T. ) ;
#6 = LINE ( 'NONE', #279, #284 ) ;
#7 = PRODUCT_DEFINITION_FORMATION_WITH_SPECIFIED_SOURCE ( 'ÈÎºÎ', '', #20, .NOT_KNOWN. ) ;
#8 = ORIENTED_EDGE ( 'NONE', *, *, #297, .F. ) ;
#9 = EDGE_LOOP ( 'NONE', ( #266, #180, #230 ) ) ;
#10 = DIRECTION ( 'NONE',  ( 1.000000000000000000, 0.0000000000000000000, 0.0000000000000000000 ) ) ;
#11 = CIRCLE ( 'NONE', #155, 6.349999999999995200 ) ;
#12 = EDGE_CURVE ( 'NONE', #51, #253, #40, .T. ) ;
#13 = FILL_AREA_STYLE_COLOUR ( '', #136 ) ;
#14 = AXIS2_PLACEMENT_3D ( 'NONE', #116, #298, #145 ) ;
#15 = AXIS2_PLACEMENT_3D ( 'NONE', #315, #102, #206 ) ;
#16 = FILL_AREA_STYLE ('',( #308 ) ) ;
#17 = AXIS2_PLACEMENT_3D ( 'NONE', #343, #75, #77 ) ;
#18 = DIRECTION ( 'NONE',  ( 0.0000000000000000000, 1.000000000000000000, -0.0000000000000000000 ) ) ;
#19 = CARTESIAN_POINT ( 'NONE',  ( 27.30140432103435100, 0.0000000000000000000, 0.0000000000000000000 ) ) ;
#20 = PRODUCT ( '145155', '145155', '', ( #330 ) ) ;
#21 = UNCERTAINTY_MEASURE_WITH_UNIT (LENGTH_MEASURE( 1.000000000000000100E-005 ), #89, 'distance_accuracy_value', 'NONE');
#22 = DIRECTION ( 'NONE',  ( 0.0000000000000000000, 0.0000000000000000000, 1.000000000000000000 ) ) ;
#23 = AXIS2_PLACEMENT_3D ( 'NONE', #179, #18, #204 ) ;
#24 = FACE_OUTER_BOUND ( 'NONE', #233, .T. ) ;
#25 = EDGE_CURVE ( 'NONE', #160, #38, #173, .T. ) ;
#26 = ORIENTED_EDGE ( 'NONE', *, *, #297, .T. ) ;
#27 = PRODUCT_RELATED_PRODUCT_CATEGORY ( 'part', '', ( #20 ) ) ;
#28 = ADVANCED_FACE ( 'NONE', ( #32 ), #305, .T. ) ;
#29 = AXIS2_PLACEMENT_3D ( 'NONE', #285, #98, #178 ) ;
#30 = ORIENTED_EDGE ( 'NONE', *, *, #85, .F. ) ;
#31 = ORIENTED_EDGE ( 'NONE', *, *, #168, .T. ) ;
#32 = FACE_OUTER_BOUND ( 'NONE', #240, .T. ) ;
#33 = STYLED_ITEM ( 'NONE', ( #63 ), #292 ) ;
#34 = ORIENTED_EDGE ( 'NONE', *, *, #5, .F. ) ;
#35 = ORIENTED_EDGE ( 'NONE', *, *, #190, .F. ) ;
#36 = CARTESIAN_POINT ( 'NONE',  ( 0.0000000000000000000, 0.0000000000000000000, 0.0000000000000000000 ) ) ;
#37 = DIRECTION ( 'NONE',  ( -0.0000000000000000000, 1.000000000000000000, 1.224646799147353200E-016 ) ) ;
#38 = VERTEX_POINT ( 'NONE', #118 ) ;
#39 =( NAMED_UNIT ( * ) PLANE_ANGLE_UNIT ( ) SI_UNIT ( $, .RADIAN. ) );
#40 = LINE ( 'NONE', #165, #106 ) ;
#41 = DIRECTION ( 'NONE',  ( 0.0000000000000000000, 0.0000000000000000000, 1.000000000000000000 ) ) ;
#42 = CARTESIAN_POINT ( 'NONE',  ( -0.8160621761658039000, 0.0000000000000000000, 6.350000000000003200 ) ) ;
#43 = DIRECTION ( 'NONE',  ( 0.0000000000000000000, 0.0000000000000000000, 1.000000000000000000 ) ) ;
#44 = SURFACE_STYLE_USAGE ( .BOTH. , #201 ) ;
#45 = EDGE_LOOP ( 'NONE', ( #132, #322, #34 ) ) ;
#46 = DIRECTION ( 'NONE',  ( 0.0000000000000000000, -1.000000000000000000, -1.224646799147353200E-016 ) ) ;
#47 = DIRECTION ( 'NONE',  ( -0.0000000000000000000, -1.000000000000000000, -0.0000000000000000000 ) ) ;
#48 = EDGE_CURVE ( 'NONE', #186, #51, #162, .T. ) ;
#49 = ADVANCED_BREP_SHAPE_REPRESENTATION ( '145155', ( #292, #130, #320 ), #141 ) ;
#50 = DIRECTION ( 'NONE',  ( 0.0000000000000000000, 0.0000000000000000000, 1.000000000000000000 ) ) ;
#51 = VERTEX_POINT ( 'NONE', #148 ) ;
#52 = EDGE_CURVE ( 'NONE', #186, #268, #232, .T. ) ;
#53 = PRESENTATION_LAYER_ASSIGNMENT (  '', '', ( #33 ) ) ;
#54 = EDGE_LOOP ( 'NONE', ( #176, #327, #235, #164 ) ) ;
#55 = CYLINDRICAL_SURFACE ( 'NONE', #29, 6.350000000000003200 ) ;
#56 = ADVANCED_FACE ( 'NONE', ( #94 ), #157, .T. ) ;
#57 = EDGE_CURVE ( 'NONE', #300, #253, #221, .T. ) ;
#58 = VECTOR ( 'NONE', #72, 1000.000000000000000 ) ;
#59 = CYLINDRICAL_SURFACE ( 'NONE', #175, 6.349999999999995200 ) ;
#60 = AXIS2_PLACEMENT_3D ( 'NONE', #277, #120, #302 ) ;
#61 = DIRECTION ( 'NONE',  ( 0.0000000000000000000, 1.000000000000000000, -0.0000000000000000000 ) ) ;
#62 =( NAMED_UNIT ( * ) SI_UNIT ( $, .STERADIAN. ) SOLID_ANGLE_UNIT ( ) );
#63 = PRESENTATION_STYLE_ASSIGNMENT (( #262 ) ) ;
#64 = DIRECTION ( 'NONE',  ( -1.000000000000000000, -0.0000000000000000000, -0.0000000000000000000 ) ) ;
#65 = CARTESIAN_POINT ( 'NONE',  ( 22.53798808532056700, 0.0000000000000000000, 0.0000000000000000000 ) ) ;
#66 = CARTESIAN_POINT ( 'NONE',  ( 11.46197047241490300, 0.0000000000000000000, 2.106783712148525000E-015 ) ) ;
#67 = LINE ( 'NONE', #177, #58 ) ;
#68 = MECHANICAL_DESIGN_GEOMETRIC_PRESENTATION_REPRESENTATION (  '', ( #33 ), #86 ) ;
#69 = CARTESIAN_POINT ( 'NONE',  ( 23.97270186590268200, 0.0000000000000000000, 0.0000000000000000000 ) ) ;
#70 = FACE_OUTER_BOUND ( 'NONE', #170, .T. ) ;
#71 =( NAMED_UNIT ( * ) PLANE_ANGLE_UNIT ( ) SI_UNIT ( $, .RADIAN. ) );
#72 = DIRECTION ( 'NONE',  ( -1.000000000000000000, -0.0000000000000000000, -0.0000000000000000000 ) ) ;
#73 = AXIS2_PLACEMENT_3D ( 'NONE', #203, #46, #225 ) ;
#74 = COLOUR_RGB ( '',1.000000000000000000, 1.000000000000000000, 1.000000000000000000 ) ;
#75 = DIRECTION ( 'NONE',  ( -0.0000000000000000000, -1.000000000000000000, -0.0000000000000000000 ) ) ;
#76 = CARTESIAN_POINT ( 'NONE',  ( 92.30197047241492200, 0.0000000000000000000, 0.0000000000000000000 ) ) ;
#77 = DIRECTION ( 'NONE',  ( 0.0000000000000000000, 0.0000000000000000000, -1.000000000000000000 ) ) ;
#78 = CIRCLE ( 'NONE', #138, 6.350000000000004100 ) ;
#79 = SURFACE_SIDE_STYLE ('',( #139 ) ) ;
#80 = EDGE_CURVE ( 'NONE', #268, #51, #238, .T. ) ;
#81 = SPHERICAL_SURFACE ( 'NONE', #260, 14.03000000000002400 ) ;
#82 = ADVANCED_FACE ( 'NONE', ( #24 ), #84, .F. ) ;
#83 = AXIS2_PLACEMENT_3D ( 'NONE', #121, #304, #151 ) ;
#84 = SPHERICAL_SURFACE ( 'NONE', #324, 14.03000000000002200 ) ;
#85 = EDGE_CURVE ( 'NONE', #268, #300, #290, .T. ) ;
#86 =( GEOMETRIC_REPRESENTATION_CONTEXT ( 3 ) GLOBAL_UNCERTAINTY_ASSIGNED_CONTEXT ( ( #166 ) ) GLOBAL_UNIT_ASSIGNED_CONTEXT ( ( #104, #124, #169 ) ) REPRESENTATION_CONTEXT ( 'NONE', 'WORKASPACE' ) );
#87 = ORIENTED_EDGE ( 'NONE', *, *, #161, .T. ) ;
#88 = DIRECTION ( 'NONE',  ( 0.0000000000000000000, 0.0000000000000000000, -1.000000000000000000 ) ) ;
#89 =( LENGTH_UNIT ( ) NAMED_UNIT ( * ) SI_UNIT ( .MILLI., .METRE. ) );
#90 = EDGE_LOOP ( 'NONE', ( #323, #261, #87, #316 ) ) ;
#91 = DIRECTION ( 'NONE',  ( 0.0000000000000000000, 0.0000000000000000000, 1.000000000000000000 ) ) ;
#92 = EDGE_CURVE ( 'NONE', #112, #38, #6, .T. ) ;
#93 = DIRECTION ( 'NONE',  ( 0.0000000000000000000, -1.000000000000000000, -1.224646799147353200E-016 ) ) ;
#94 = FACE_OUTER_BOUND ( 'NONE', #90, .T. ) ;
#95 = CARTESIAN_POINT ( 'NONE',  ( 27.30140432103435400, 0.0000000000000000000, -6.349999999999977400 ) ) ;
#96 = CARTESIAN_POINT ( 'NONE',  ( 20.79197047241490300, 0.0000000000000000000, 5.989292606450007900E-015 ) ) ;
#97 = ORIENTED_EDGE ( 'NONE', *, *, #80, .T. ) ;
#98 = DIRECTION ( 'NONE',  ( -1.000000000000000000, -0.0000000000000000000, -0.0000000000000000000 ) ) ;
#99 = CARTESIAN_POINT ( 'NONE',  ( 23.97270186590268200, -7.776507174585685300E-016, 6.349999999999995200 ) ) ;
#100 = DIRECTION ( 'NONE',  ( 0.0000000000000000000, 1.224646799147353500E-016, -1.000000000000000000 ) ) ;
#101 = AXIS2_PLACEMENT_3D ( 'NONE', #337, #252, #153 ) ;
#102 = DIRECTION ( 'NONE',  ( -0.0000000000000000000, -1.000000000000000000, -0.0000000000000000000 ) ) ;
#103 = ORIENTED_EDGE ( 'NONE', *, *, #5, .T. ) ;
#104 =( LENGTH_UNIT ( ) NAMED_UNIT ( * ) SI_UNIT ( .MILLI., .METRE. ) );
#105 = EDGE_LOOP ( 'NONE', ( #97, #143, #113, #30 ) ) ;
#106 = VECTOR ( 'NONE', #274, 1000.000000000000000 ) ;
#107 = AXIS2_PLACEMENT_3D ( 'NONE', #328, #192, #88 ) ;
#108 = AXIS2_PLACEMENT_3D ( 'NONE', #152, #307, #280 ) ;
#109 = ORIENTED_EDGE ( 'NONE', *, *, #48, .F. ) ;
#110 = UNCERTAINTY_MEASURE_WITH_UNIT (LENGTH_MEASURE( 1.000000000000000100E-005 ), #217, 'distance_accuracy_value', 'NONE');
#111 = ADVANCED_FACE ( 'NONE', ( #210 ), #81, .T. ) ;
#112 = VERTEX_POINT ( 'NONE', #95 ) ;
#113 = ORIENTED_EDGE ( 'NONE', *, *, #57, .F. ) ;
#114 = SPHERICAL_SURFACE ( 'NONE', #134, 12.42000000000000300 ) ;
#115 = ORIENTED_EDGE ( 'NONE', *, *, #198, .F. ) ;
#116 = CARTESIAN_POINT ( 'NONE',  ( 92.30197047241492200, 0.0000000000000000000, 0.0000000000000000000 ) ) ;
#117 = ORIENTED_EDGE ( 'NONE', *, *, #57, .T. ) ;
#118 = CARTESIAN_POINT ( 'NONE',  ( 23.97270186590268200, 0.0000000000000000000, -6.349999999999993400 ) ) ;
#119 = SURFACE_SIDE_STYLE ('',( #211 ) ) ;
#120 = DIRECTION ( 'NONE',  ( 0.0000000000000000000, -1.000000000000000000, 0.0000000000000000000 ) ) ;
#121 = CARTESIAN_POINT ( 'NONE',  ( 23.97270186590268200, 0.0000000000000000000, 0.0000000000000000000 ) ) ;
#122 = PRODUCT_DEFINITION_CONTEXT ( 'detailed design', #146, 'design' ) ;
#123 = ORIENTED_EDGE ( 'NONE', *, *, #52, .T. ) ;
#124 =( NAMED_UNIT ( * ) PLANE_ANGLE_UNIT ( ) SI_UNIT ( $, .RADIAN. ) );
#125 = DIRECTION ( 'NONE',  ( 0.0000000000000000000, 0.0000000000000000000, 1.000000000000000000 ) ) ;
#126 = AXIS2_PLACEMENT_3D ( 'NONE', #65, #219, #41 ) ;
#127 = CARTESIAN_POINT ( 'NONE',  ( 22.53798808532056700, -7.776507174585689200E-016, 6.350000000000003200 ) ) ;
#128 = SPHERICAL_SURFACE ( 'NONE', #239, 65.31000000000000200 ) ;
#129 = DIRECTION ( 'NONE',  ( 0.0000000000000000000, 1.000000000000000000, 0.0000000000000000000 ) ) ;
#130 = MANIFOLD_SOLID_BREP ( 'Ðý×ª2', #147 ) ;
#131 = AXIS2_PLACEMENT_3D ( 'NONE', #195, #37, #216 ) ;
#132 = ORIENTED_EDGE ( 'NONE', *, *, #242, .F. ) ;
#133 = ORIENTED_EDGE ( 'NONE', *, *, #25, .F. ) ;
#134 = AXIS2_PLACEMENT_3D ( 'NONE', #191, #275, #243 ) ;
#135 = FACE_OUTER_BOUND ( 'NONE', #237, .T. ) ;
#136 = COLOUR_RGB ( '',1.000000000000000000, 1.000000000000000000, 1.000000000000000000 ) ;
#137 = ADVANCED_FACE ( 'NONE', ( #281 ), #271, .T. ) ;
#138 = AXIS2_PLACEMENT_3D ( 'NONE', #344, #181, #22 ) ;
#139 = SURFACE_STYLE_FILL_AREA ( #229 ) ;
#140 = FACE_OUTER_BOUND ( 'NONE', #193, .T. ) ;
#141 =( GEOMETRIC_REPRESENTATION_CONTEXT ( 3 ) GLOBAL_UNCERTAINTY_ASSIGNED_CONTEXT ( ( #110 ) ) GLOBAL_UNIT_ASSIGNED_CONTEXT ( ( #217, #39, #196 ) ) REPRESENTATION_CONTEXT ( 'NONE', 'WORKASPACE' ) );
#142 = PRESENTATION_STYLE_ASSIGNMENT (( #44 ) ) ;
#143 = ORIENTED_EDGE ( 'NONE', *, *, #12, .T. ) ;
#144 = PRESENTATION_STYLE_ASSIGNMENT (( #276 ) ) ;
#145 = DIRECTION ( 'NONE',  ( 0.0000000000000000000, 0.0000000000000000000, 1.000000000000000000 ) ) ;
#146 = APPLICATION_CONTEXT ( 'automotive_design' ) ;
#147 = CLOSED_SHELL ( 'NONE', ( #321, #291, #267, #82, #234, #56 ) ) ;
#148 = CARTESIAN_POINT ( 'NONE',  ( 23.97270186590268200, 7.776507174585698100E-016, -6.350000000000005000 ) ) ;
#149 = APPLICATION_CONTEXT ( 'automotive_design' ) ;
#150 = CIRCLE ( 'NONE', #346, 6.349999999999995200 ) ;
#151 = DIRECTION ( 'NONE',  ( 0.0000000000000000000, 0.0000000000000000000, 1.000000000000000000 ) ) ;
#152 = CARTESIAN_POINT ( 'NONE',  ( 27.30140432103435100, 0.0000000000000000000, 0.0000000000000000000 ) ) ;
#153 = DIRECTION ( 'NONE',  ( 0.0000000000000000000, 0.0000000000000000000, 1.000000000000000000 ) ) ;
#154 = DIRECTION ( 'NONE',  ( -1.000000000000000000, -0.0000000000000000000, -0.0000000000000000000 ) ) ;
#155 = AXIS2_PLACEMENT_3D ( 'NONE', #19, #205, #50 ) ;
#156 = FILL_AREA_STYLE_COLOUR ( '', #207 ) ;
#157 = CYLINDRICAL_SURFACE ( 'NONE', #289, 6.349999999999995200 ) ;
#158 = AXIS2_PLACEMENT_3D ( 'NONE', #278, #93, #248 ) ;
#159 = ADVANCED_FACE ( 'NONE', ( #140 ), #208, .T. ) ;
#160 = VERTEX_POINT ( 'NONE', #309 ) ;
#161 = EDGE_CURVE ( 'NONE', #329, #188, #67, .T. ) ;
#162 = CIRCLE ( 'NONE', #131, 14.03000000000002400 ) ;
#163 = AXIS2_PLACEMENT_3D ( 'NONE', #218, #64, #249 ) ;
#164 = ORIENTED_EDGE ( 'NONE', *, *, #318, .F. ) ;
#165 = CARTESIAN_POINT ( 'NONE',  ( -0.8160621761658039000, 7.776507174585696100E-016, -6.350000000000003200 ) ) ;
#166 = UNCERTAINTY_MEASURE_WITH_UNIT (LENGTH_MEASURE( 1.000000000000000100E-005 ), #104, 'distance_accuracy_value', 'NONE');
#167 = DIRECTION ( 'NONE',  ( -1.000000000000000000, -0.0000000000000000000, -0.0000000000000000000 ) ) ;
#168 = EDGE_CURVE ( 'NONE', #38, #188, #347, .T. ) ;
#169 =( NAMED_UNIT ( * ) SI_UNIT ( $, .STERADIAN. ) SOLID_ANGLE_UNIT ( ) );
#170 = EDGE_LOOP ( 'NONE', ( #303, #345, #8, #172 ) ) ;
#171 = APPLICATION_PROTOCOL_DEFINITION ( 'draft international standard', 'automotive_design', 1998, #149 ) ;
#172 = ORIENTED_EDGE ( 'NONE', *, *, #161, .F. ) ;
#173 = CIRCLE ( 'NONE', #236, 14.03000000000002200 ) ;
#174 = DIRECTION ( 'NONE',  ( -1.000000000000000000, -0.0000000000000000000, -0.0000000000000000000 ) ) ;
#175 = AXIS2_PLACEMENT_3D ( 'NONE', #259, #336, #251 ) ;
#176 = ORIENTED_EDGE ( 'NONE', *, *, #12, .F. ) ;
#177 = CARTESIAN_POINT ( 'NONE',  ( -0.5519199926577972300, 0.0000000000000000000, 6.349999999999995200 ) ) ;
#178 = DIRECTION ( 'NONE',  ( 0.0000000000000000000, 0.0000000000000000000, 1.000000000000000000 ) ) ;
#179 = CARTESIAN_POINT ( 'NONE',  ( 33.21197047241490500, 0.0000000000000000000, 6.749798268720513800E-015 ) ) ;
#180 = ORIENTED_EDGE ( 'NONE', *, *, #48, .T. ) ;
#181 = DIRECTION ( 'NONE',  ( -1.000000000000000000, -0.0000000000000000000, -0.0000000000000000000 ) ) ;
#182 = EDGE_LOOP ( 'NONE', ( #133, #295, #26 ) ) ;
#183 = EDGE_CURVE ( 'NONE', #300, #310, #338, .T. ) ;
#184 = ORIENTED_EDGE ( 'NONE', *, *, #335, .F. ) ;
#185 = ADVANCED_FACE ( 'NONE', ( #200 ), #55, .T. ) ;
#186 = VERTEX_POINT ( 'NONE', #256 ) ;
#187 = AXIS2_PLACEMENT_3D ( 'NONE', #76, #258, #100 ) ;
#188 = VERTEX_POINT ( 'NONE', #99 ) ;
#189 = SPHERICAL_SURFACE ( 'NONE', #17, 14.03000000000002200 ) ;
#190 = EDGE_CURVE ( 'NONE', #253, #310, #326, .T. ) ;
#191 = CARTESIAN_POINT ( 'NONE',  ( 33.21197047241490500, 0.0000000000000000000, 6.749798268720513800E-015 ) ) ;
#192 = DIRECTION ( 'NONE',  ( -0.0000000000000000000, -1.000000000000000000, -0.0000000000000000000 ) ) ;
#193 = EDGE_LOOP ( 'NONE', ( #109, #123, #294 ) ) ;
#194 = DIRECTION ( 'NONE',  ( 0.0000000000000000000, 0.0000000000000000000, 1.000000000000000000 ) ) ;
#195 = CARTESIAN_POINT ( 'NONE',  ( 11.46197047241490300, 0.0000000000000000000, 2.106783712148525000E-015 ) ) ;
#196 =( NAMED_UNIT ( * ) SI_UNIT ( $, .STERADIAN. ) SOLID_ANGLE_UNIT ( ) );
#197 = DIRECTION ( 'NONE',  ( -0.0000000000000000000, -1.000000000000000000, -0.0000000000000000000 ) ) ;
#198 = EDGE_CURVE ( 'NONE', #329, #342, #264, .T. ) ;
#199 = CARTESIAN_POINT ( 'NONE',  ( 27.30140432103435400, -7.776507174585665500E-016, 6.349999999999977400 ) ) ;
#200 = FACE_OUTER_BOUND ( 'NONE', #105, .T. ) ;
#201 = SURFACE_SIDE_STYLE ('',( #2 ) ) ;
#202 = SHAPE_DEFINITION_REPRESENTATION ( #269, #49 ) ;
#203 = CARTESIAN_POINT ( 'NONE',  ( 33.21197047241490500, 0.0000000000000000000, 6.749798268720513800E-015 ) ) ;
#204 = DIRECTION ( 'NONE',  ( 0.0000000000000000000, 0.0000000000000000000, 1.000000000000000000 ) ) ;
#205 = DIRECTION ( 'NONE',  ( -1.000000000000000000, -0.0000000000000000000, -0.0000000000000000000 ) ) ;
#206 = DIRECTION ( 'NONE',  ( 0.0000000000000000000, 0.0000000000000000000, -1.000000000000000000 ) ) ;
#207 = COLOUR_RGB ( '',1.000000000000000000, 1.000000000000000000, 1.000000000000000000 ) ;
#208 = SPHERICAL_SURFACE ( 'NONE', #213, 14.03000000000002400 ) ;
#209 = STYLED_ITEM ( 'NONE', ( #144 ), #49 ) ;
#210 = FACE_OUTER_BOUND ( 'NONE', #9, .T. ) ;
#211 = SURFACE_STYLE_FILL_AREA ( #301 ) ;
#212 = SPHERICAL_SURFACE ( 'NONE', #15, 65.31000000000000200 ) ;
#213 = AXIS2_PLACEMENT_3D ( 'NONE', #339, #129, #283 ) ;
#214 = VECTOR ( 'NONE', #220, 1000.000000000000000 ) ;
#215 = CARTESIAN_POINT ( 'NONE',  ( 11.46197047241490300, 0.0000000000000000000, 2.106783712148525000E-015 ) ) ;
#216 = DIRECTION ( 'NONE',  ( 0.0000000000000000000, -1.224646799147353200E-016, 1.000000000000000000 ) ) ;
#217 =( LENGTH_UNIT ( ) NAMED_UNIT ( * ) SI_UNIT ( .MILLI., .METRE. ) );
#218 = CARTESIAN_POINT ( 'NONE',  ( 22.53798808532056700, 0.0000000000000000000, 0.0000000000000000000 ) ) ;
#219 = DIRECTION ( 'NONE',  ( -1.000000000000000000, -0.0000000000000000000, -0.0000000000000000000 ) ) ;
#220 = DIRECTION ( 'NONE',  ( -1.000000000000000000, -0.0000000000000000000, -0.0000000000000000000 ) ) ;
#221 = CIRCLE ( 'NONE', #163, 6.350000000000003200 ) ;
#222 = DIRECTION ( 'NONE',  ( -1.000000000000000000, -0.0000000000000000000, -0.0000000000000000000 ) ) ;
#223 =( LENGTH_UNIT ( ) NAMED_UNIT ( * ) SI_UNIT ( .MILLI., .METRE. ) );
#224 = PRESENTATION_LAYER_ASSIGNMENT (  '', '', ( #209 ) ) ;
#225 = DIRECTION ( 'NONE',  ( 0.0000000000000000000, 1.224646799147353200E-016, -1.000000000000000000 ) ) ;
#226 = CARTESIAN_POINT ( 'NONE',  ( 22.53798808532056700, 0.0000000000000000000, -6.349999999999996100 ) ) ;
#227 = UNCERTAINTY_MEASURE_WITH_UNIT (LENGTH_MEASURE( 1.000000000000000100E-005 ), #223, 'distance_accuracy_value', 'NONE');
#228 = CLOSED_SHELL ( 'NONE', ( #111, #185, #28, #3, #137, #159 ) ) ;
#229 = FILL_AREA_STYLE ('',( #156 ) ) ;
#230 = ORIENTED_EDGE ( 'NONE', *, *, #80, .F. ) ;
#231 =( GEOMETRIC_REPRESENTATION_CONTEXT ( 3 ) GLOBAL_UNCERTAINTY_ASSIGNED_CONTEXT ( ( #227 ) ) GLOBAL_UNIT_ASSIGNED_CONTEXT ( ( #223, #71, #254 ) ) REPRESENTATION_CONTEXT ( 'NONE', 'WORKASPACE' ) );
#232 = CIRCLE ( 'NONE', #60, 14.03000000000002400 ) ;
#233 = EDGE_LOOP ( 'NONE', ( #184, #247, #31 ) ) ;
#234 = ADVANCED_FACE ( 'NONE', ( #135 ), #128, .F. ) ;
#235 = ORIENTED_EDGE ( 'NONE', *, *, #85, .T. ) ;
#236 = AXIS2_PLACEMENT_3D ( 'NONE', #215, #61, #245 ) ;
#237 = EDGE_LOOP ( 'NONE', ( #115, #257, #103 ) ) ;
#238 = CIRCLE ( 'NONE', #83, 6.350000000000004100 ) ;
#239 = AXIS2_PLACEMENT_3D ( 'NONE', #312, #47, #287 ) ;
#240 = EDGE_LOOP ( 'NONE', ( #325, #293, #35 ) ) ;
#241 = MECHANICAL_DESIGN_GEOMETRIC_PRESENTATION_REPRESENTATION (  '', ( #209 ), #265 ) ;
#242 = EDGE_CURVE ( 'NONE', #329, #112, #11, .T. ) ;
#243 = DIRECTION ( 'NONE',  ( 0.0000000000000000000, 0.0000000000000000000, -1.000000000000000000 ) ) ;
#244 = EDGE_LOOP ( 'NONE', ( #319, #117, #314 ) ) ;
#245 = DIRECTION ( 'NONE',  ( 0.0000000000000000000, 0.0000000000000000000, 1.000000000000000000 ) ) ;
#246 =( NAMED_UNIT ( * ) PLANE_ANGLE_UNIT ( ) SI_UNIT ( $, .RADIAN. ) );
#247 = ORIENTED_EDGE ( 'NONE', *, *, #25, .T. ) ;
#248 = DIRECTION ( 'NONE',  ( 0.0000000000000000000, 1.224646799147353200E-016, -1.000000000000000000 ) ) ;
#249 = DIRECTION ( 'NONE',  ( 0.0000000000000000000, 0.0000000000000000000, 1.000000000000000000 ) ) ;
#250 = MECHANICAL_DESIGN_GEOMETRIC_PRESENTATION_REPRESENTATION (  '', ( #263 ), #231 ) ;
#251 = DIRECTION ( 'NONE',  ( 0.0000000000000000000, 0.0000000000000000000, 1.000000000000000000 ) ) ;
#252 = DIRECTION ( 'NONE',  ( -1.000000000000000000, -0.0000000000000000000, -0.0000000000000000000 ) ) ;
#253 = VERTEX_POINT ( 'NONE', #226 ) ;
#254 =( NAMED_UNIT ( * ) SI_UNIT ( $, .STERADIAN. ) SOLID_ANGLE_UNIT ( ) );
#255 = FACE_OUTER_BOUND ( 'NONE', #45, .T. ) ;
#256 = CARTESIAN_POINT ( 'NONE',  ( 25.49197047241493100, 0.0000000000000000000, 2.965873441750394800E-015 ) ) ;
#257 = ORIENTED_EDGE ( 'NONE', *, *, #306, .F. ) ;
#258 = DIRECTION ( 'NONE',  ( 0.0000000000000000000, -1.000000000000000000, -1.224646799147353200E-016 ) ) ;
#259 = CARTESIAN_POINT ( 'NONE',  ( -0.5519199926577972300, 0.0000000000000000000, 0.0000000000000000000 ) ) ;
#260 = AXIS2_PLACEMENT_3D ( 'NONE', #66, #282, #125 ) ;
#261 = ORIENTED_EDGE ( 'NONE', *, *, #306, .T. ) ;
#262 = SURFACE_STYLE_USAGE ( .BOTH. , #79 ) ;
#263 = STYLED_ITEM ( 'NONE', ( #142 ), #130 ) ;
#264 = CIRCLE ( 'NONE', #187, 65.31000000000000200 ) ;
#265 =( GEOMETRIC_REPRESENTATION_CONTEXT ( 3 ) GLOBAL_UNCERTAINTY_ASSIGNED_CONTEXT ( ( #21 ) ) GLOBAL_UNIT_ASSIGNED_CONTEXT ( ( #89, #246, #62 ) ) REPRESENTATION_CONTEXT ( 'NONE', 'WORKASPACE' ) );
#266 = ORIENTED_EDGE ( 'NONE', *, *, #52, .F. ) ;
#267 = ADVANCED_FACE ( 'NONE', ( #288 ), #189, .F. ) ;
#268 = VERTEX_POINT ( 'NONE', #313 ) ;
#269 = PRODUCT_DEFINITION_SHAPE ( 'NONE', 'NONE',  #340 ) ;
#270 = PRESENTATION_LAYER_ASSIGNMENT (  '', '', ( #263 ) ) ;
#271 = CYLINDRICAL_SURFACE ( 'NONE', #101, 6.350000000000003200 ) ;
#272 = CIRCLE ( 'NONE', #158, 14.03000000000002200 ) ;
#273 = EDGE_CURVE ( 'NONE', #51, #268, #78, .T. ) ;
#274 = DIRECTION ( 'NONE',  ( -1.000000000000000000, -0.0000000000000000000, -0.0000000000000000000 ) ) ;
#275 = DIRECTION ( 'NONE',  ( -0.0000000000000000000, -1.000000000000000000, -0.0000000000000000000 ) ) ;
#276 = SURFACE_STYLE_USAGE ( .BOTH. , #119 ) ;
#277 = CARTESIAN_POINT ( 'NONE',  ( 11.46197047241490300, 0.0000000000000000000, 2.106783712148525000E-015 ) ) ;
#278 = CARTESIAN_POINT ( 'NONE',  ( 11.46197047241490300, 0.0000000000000000000, 2.106783712148525000E-015 ) ) ;
#279 = CARTESIAN_POINT ( 'NONE',  ( -0.5519199926577972300, 7.776507174585687200E-016, -6.349999999999995200 ) ) ;
#280 = DIRECTION ( 'NONE',  ( 0.0000000000000000000, 0.0000000000000000000, 1.000000000000000000 ) ) ;
#281 = FACE_OUTER_BOUND ( 'NONE', #54, .T. ) ;
#282 = DIRECTION ( 'NONE',  ( 0.0000000000000000000, 1.000000000000000000, 0.0000000000000000000 ) ) ;
#283 = DIRECTION ( 'NONE',  ( 0.0000000000000000000, 0.0000000000000000000, 1.000000000000000000 ) ) ;
#284 = VECTOR ( 'NONE', #174, 1000.000000000000000 ) ;
#285 = CARTESIAN_POINT ( 'NONE',  ( -0.8160621761658039000, 0.0000000000000000000, 0.0000000000000000000 ) ) ;
#286 = AXIS2_PLACEMENT_3D ( 'NONE', #311, #154, #341 ) ;
#287 = DIRECTION ( 'NONE',  ( 0.0000000000000000000, 0.0000000000000000000, -1.000000000000000000 ) ) ;
#288 = FACE_OUTER_BOUND ( 'NONE', #182, .T. ) ;
#289 = AXIS2_PLACEMENT_3D ( 'NONE', #331, #167, #91 ) ;
#290 = LINE ( 'NONE', #42, #214 ) ;
#291 = ADVANCED_FACE ( 'NONE', ( #255 ), #212, .F. ) ;
#292 = MANIFOLD_SOLID_BREP ( 'Ðý×ª1', #228 ) ;
#293 = ORIENTED_EDGE ( 'NONE', *, *, #183, .T. ) ;
#294 = ORIENTED_EDGE ( 'NONE', *, *, #273, .F. ) ;
#295 = ORIENTED_EDGE ( 'NONE', *, *, #335, .T. ) ;
#296 = FACE_OUTER_BOUND ( 'NONE', #244, .T. ) ;
#297 = EDGE_CURVE ( 'NONE', #188, #38, #150, .T. ) ;
#298 = DIRECTION ( 'NONE',  ( 0.0000000000000000000, 1.000000000000000000, -0.0000000000000000000 ) ) ;
#299 = APPLICATION_PROTOCOL_DEFINITION ( 'draft international standard', 'automotive_design', 1998, #146 ) ;
#300 = VERTEX_POINT ( 'NONE', #127 ) ;
#301 = FILL_AREA_STYLE ('',( #13 ) ) ;
#302 = DIRECTION ( 'NONE',  ( 0.0000000000000000000, 0.0000000000000000000, -1.000000000000000000 ) ) ;
#303 = ORIENTED_EDGE ( 'NONE', *, *, #242, .T. ) ;
#304 = DIRECTION ( 'NONE',  ( -1.000000000000000000, -0.0000000000000000000, -0.0000000000000000000 ) ) ;
#305 = SPHERICAL_SURFACE ( 'NONE', #107, 12.42000000000000300 ) ;
#306 = EDGE_CURVE ( 'NONE', #112, #329, #4, .T. ) ;
#307 = DIRECTION ( 'NONE',  ( -1.000000000000000000, -0.0000000000000000000, -0.0000000000000000000 ) ) ;
#308 = FILL_AREA_STYLE_COLOUR ( '', #74 ) ;
#309 = CARTESIAN_POINT ( 'NONE',  ( 25.49197047241492300, 0.0000000000000000000, 1.247693982546655200E-015 ) ) ;
#310 = VERTEX_POINT ( 'NONE', #96 ) ;
#311 = CARTESIAN_POINT ( 'NONE',  ( 23.97270186590268200, 0.0000000000000000000, 0.0000000000000000000 ) ) ;
#312 = CARTESIAN_POINT ( 'NONE',  ( 92.30197047241492200, 0.0000000000000000000, 0.0000000000000000000 ) ) ;
#313 = CARTESIAN_POINT ( 'NONE',  ( 23.97270186590268200, 0.0000000000000000000, 6.350000000000004100 ) ) ;
#314 = ORIENTED_EDGE ( 'NONE', *, *, #190, .T. ) ;
#315 = CARTESIAN_POINT ( 'NONE',  ( 92.30197047241492200, 0.0000000000000000000, 0.0000000000000000000 ) ) ;
#316 = ORIENTED_EDGE ( 'NONE', *, *, #168, .F. ) ;
#317 = CIRCLE ( 'NONE', #14, 65.31000000000000200 ) ;
#318 = EDGE_CURVE ( 'NONE', #253, #300, #1, .T. ) ;
#319 = ORIENTED_EDGE ( 'NONE', *, *, #183, .F. ) ;
#320 = AXIS2_PLACEMENT_3D ( 'NONE', #36, #194, #10 ) ;
#321 = ADVANCED_FACE ( 'NONE', ( #70 ), #59, .T. ) ;
#322 = ORIENTED_EDGE ( 'NONE', *, *, #198, .T. ) ;
#323 = ORIENTED_EDGE ( 'NONE', *, *, #92, .F. ) ;
#324 = AXIS2_PLACEMENT_3D ( 'NONE', #332, #197, #334 ) ;
#325 = ORIENTED_EDGE ( 'NONE', *, *, #318, .T. ) ;
#326 = CIRCLE ( 'NONE', #23, 12.42000000000000300 ) ;
#327 = ORIENTED_EDGE ( 'NONE', *, *, #273, .T. ) ;
#328 = CARTESIAN_POINT ( 'NONE',  ( 33.21197047241490500, 0.0000000000000000000, 6.749798268720513800E-015 ) ) ;
#329 = VERTEX_POINT ( 'NONE', #199 ) ;
#330 = PRODUCT_CONTEXT ( 'NONE', #149, 'mechanical' ) ;
#331 = CARTESIAN_POINT ( 'NONE',  ( -0.5519199926577972300, 0.0000000000000000000, 0.0000000000000000000 ) ) ;
#332 = CARTESIAN_POINT ( 'NONE',  ( 11.46197047241490300, 0.0000000000000000000, 2.106783712148525000E-015 ) ) ;
#333 = CARTESIAN_POINT ( 'NONE',  ( 26.99197047241491600, 0.0000000000000000000, -3.999084122615682400E-015 ) ) ;
#334 = DIRECTION ( 'NONE',  ( 0.0000000000000000000, 0.0000000000000000000, -1.000000000000000000 ) ) ;
#335 = EDGE_CURVE ( 'NONE', #160, #188, #272, .T. ) ;
#336 = DIRECTION ( 'NONE',  ( -1.000000000000000000, -0.0000000000000000000, -0.0000000000000000000 ) ) ;
#337 = CARTESIAN_POINT ( 'NONE',  ( -0.8160621761658039000, 0.0000000000000000000, 0.0000000000000000000 ) ) ;
#338 = CIRCLE ( 'NONE', #73, 12.42000000000000300 ) ;
#339 = CARTESIAN_POINT ( 'NONE',  ( 11.46197047241490300, 0.0000000000000000000, 2.106783712148525000E-015 ) ) ;
#340 = PRODUCT_DEFINITION ( 'Î´Öª', '', #7, #122 ) ;
#341 = DIRECTION ( 'NONE',  ( 0.0000000000000000000, 0.0000000000000000000, 1.000000000000000000 ) ) ;
#342 = VERTEX_POINT ( 'NONE', #333 ) ;
#343 = CARTESIAN_POINT ( 'NONE',  ( 11.46197047241490300, 0.0000000000000000000, 2.106783712148525000E-015 ) ) ;
#344 = CARTESIAN_POINT ( 'NONE',  ( 23.97270186590268200, 0.0000000000000000000, 0.0000000000000000000 ) ) ;
#345 = ORIENTED_EDGE ( 'NONE', *, *, #92, .T. ) ;
#346 = AXIS2_PLACEMENT_3D ( 'NONE', #69, #222, #43 ) ;
#347 = CIRCLE ( 'NONE', #286, 6.349999999999995200 ) ;
ENDSEC;
END-ISO-10303-21;
