ISO-10303-21;
HEADER;
FILE_DESCRIPTION (( 'STEP AP214' ),
    '1' );
FILE_NAME ('145159.STEP',
    '2019-06-07T04:06:02',
    ( 'user' ),
    ( 'Î¢ÈíÖÐ¹ú' ),
    'SwSTEP 2.0',
    'SolidWorks 2016',
    '' );
FILE_SCHEMA (( 'AUTOMOTIVE_DESIGN' ));
ENDSEC;

DATA;
#1 = ORIENTED_EDGE ( 'NONE', *, *, #25, .F. ) ;
#2 = SPHERICAL_SURFACE ( 'NONE', #255, 17.87000000000001200 ) ;
#3 = EDGE_LOOP ( 'NONE', ( #116, #68, #52 ) ) ;
#4 =( NAMED_UNIT ( * ) PLANE_ANGLE_UNIT ( ) SI_UNIT ( $, .RADIAN. ) );
#5 = DIRECTION ( 'NONE',  ( -1.000000000000000000, -0.0000000000000000000, -0.0000000000000000000 ) ) ;
#6 = EDGE_CURVE ( 'NONE', #182, #24, #142, .T. ) ;
#7 = CARTESIAN_POINT ( 'NONE',  ( -0.8160621761658039000, 0.0000000000000000000, 12.69999999999999900 ) ) ;
#8 = PRESENTATION_LAYER_ASSIGNMENT (  '', '', ( #26 ) ) ;
#9 = SURFACE_STYLE_FILL_AREA ( #65 ) ;
#10 = DIRECTION ( 'NONE',  ( -1.000000000000000000, -0.0000000000000000000, -0.0000000000000000000 ) ) ;
#11 = CARTESIAN_POINT ( 'NONE',  ( 20.90190911915812300, 0.0000000000000000000, 0.0000000000000000000 ) ) ;
#12 = VERTEX_POINT ( 'NONE', #233 ) ;
#13 = ORIENTED_EDGE ( 'NONE', *, *, #314, .T. ) ;
#14 = DIRECTION ( 'NONE',  ( 0.0000000000000000000, 0.0000000000000000000, 1.000000000000000000 ) ) ;
#15 = CARTESIAN_POINT ( 'NONE',  ( -0.8160621761658039000, 1.555301434917138400E-015, -12.69999999999999900 ) ) ;
#16 =( LENGTH_UNIT ( ) NAMED_UNIT ( * ) SI_UNIT ( .MILLI., .METRE. ) );
#17 = FILL_AREA_STYLE ('',( #159 ) ) ;
#18 = AXIS2_PLACEMENT_3D ( 'NONE', #252, #197, #291 ) ;
#19 = ORIENTED_EDGE ( 'NONE', *, *, #152, .T. ) ;
#20 = UNCERTAINTY_MEASURE_WITH_UNIT (LENGTH_MEASURE( 1.000000000000000100E-005 ), #16, 'distance_accuracy_value', 'NONE');
#21 = CARTESIAN_POINT ( 'NONE',  ( 20.90190911915812300, 0.0000000000000000000, -12.69999999999999800 ) ) ;
#22 = DIRECTION ( 'NONE',  ( -0.0000000000000000000, -1.000000000000000000, -0.0000000000000000000 ) ) ;
#23 = ORIENTED_EDGE ( 'NONE', *, *, #30, .T. ) ;
#24 = VERTEX_POINT ( 'NONE', #208 ) ;
#25 = EDGE_CURVE ( 'NONE', #12, #53, #181, .T. ) ;
#26 = STYLED_ITEM ( 'NONE', ( #44 ), #184 ) ;
#27 = FACE_OUTER_BOUND ( 'NONE', #3, .T. ) ;
#28 = ORIENTED_EDGE ( 'NONE', *, *, #189, .F. ) ;
#29 = DIRECTION ( 'NONE',  ( 0.0000000000000000000, 0.0000000000000000000, 1.000000000000000000 ) ) ;
#30 = EDGE_CURVE ( 'NONE', #209, #48, #91, .T. ) ;
#31 = ORIENTED_EDGE ( 'NONE', *, *, #146, .F. ) ;
#32 = FACE_OUTER_BOUND ( 'NONE', #42, .T. ) ;
#33 = ORIENTED_EDGE ( 'NONE', *, *, #241, .F. ) ;
#34 = EDGE_CURVE ( 'NONE', #53, #140, #128, .T. ) ;
#35 = PRESENTATION_LAYER_ASSIGNMENT (  '', '', ( #72 ) ) ;
#36 = CARTESIAN_POINT ( 'NONE',  ( 18.49481298983154100, 0.0000000000000000000, 12.69999999999999800 ) ) ;
#37 = FACE_OUTER_BOUND ( 'NONE', #38, .T. ) ;
#38 = EDGE_LOOP ( 'NONE', ( #218, #177, #118, #103 ) ) ;
#39 = CARTESIAN_POINT ( 'NONE',  ( 28.00023858577235800, 0.0000000000000000000, -6.441642163515078900E-015 ) ) ;
#40 = AXIS2_PLACEMENT_3D ( 'NONE', #104, #131, #14 ) ;
#41 = FACE_OUTER_BOUND ( 'NONE', #129, .T. ) ;
#42 = EDGE_LOOP ( 'NONE', ( #89, #23, #100 ) ) ;
#43 = DIRECTION ( 'NONE',  ( 0.0000000000000000000, 1.224646799147353000E-016, -1.000000000000000000 ) ) ;
#44 = PRESENTATION_STYLE_ASSIGNMENT (( #109 ) ) ;
#45 = EDGE_LOOP ( 'NONE', ( #31, #298, #19, #33 ) ) ;
#46 = UNCERTAINTY_MEASURE_WITH_UNIT (LENGTH_MEASURE( 1.000000000000000100E-005 ), #331, 'distance_accuracy_value', 'NONE');
#47 = CARTESIAN_POINT ( 'NONE',  ( 37.85023858577233800, 0.0000000000000000000, -8.373427902986100400E-017 ) ) ;
#48 = VERTEX_POINT ( 'NONE', #98 ) ;
#49 = DIRECTION ( 'NONE',  ( 0.0000000000000000000, 0.0000000000000000000, -1.000000000000000000 ) ) ;
#50 = DIRECTION ( 'NONE',  ( 0.0000000000000000000, 0.0000000000000000000, 1.000000000000000000 ) ) ;
#51 = DIRECTION ( 'NONE',  ( 0.0000000000000000000, 0.0000000000000000000, 1.000000000000000000 ) ) ;
#52 = ORIENTED_EDGE ( 'NONE', *, *, #342, .T. ) ;
#53 = VERTEX_POINT ( 'NONE', #151 ) ;
#54 = CARTESIAN_POINT ( 'NONE',  ( 20.90190911915812300, 0.0000000000000000000, 0.0000000000000000000 ) ) ;
#55 = CLOSED_SHELL ( 'NONE', ( #58, #309, #284, #62, #238, #328 ) ) ;
#56 = EDGE_CURVE ( 'NONE', #24, #182, #187, .T. ) ;
#57 = AXIS2_PLACEMENT_3D ( 'NONE', #66, #71, #337 ) ;
#58 = ADVANCED_FACE ( 'NONE', ( #160 ), #176, .T. ) ;
#59 = FACE_OUTER_BOUND ( 'NONE', #304, .T. ) ;
#60 = SURFACE_STYLE_FILL_AREA ( #17 ) ;
#61 = COLOUR_RGB ( '',1.000000000000000000, 1.000000000000000000, 1.000000000000000000 ) ;
#62 = ADVANCED_FACE ( 'NONE', ( #111 ), #85, .T. ) ;
#63 = SURFACE_SIDE_STYLE ('',( #60 ) ) ;
#64 = PRODUCT_DEFINITION_SHAPE ( 'NONE', 'NONE',  #215 ) ;
#65 = FILL_AREA_STYLE ('',( #299 ) ) ;
#66 = CARTESIAN_POINT ( 'NONE',  ( 37.85023858577233800, 0.0000000000000000000, -8.373427902986100400E-017 ) ) ;
#67 = VECTOR ( 'NONE', #201, 1000.000000000000000 ) ;
#68 = ORIENTED_EDGE ( 'NONE', *, *, #267, .T. ) ;
#69 = DIRECTION ( 'NONE',  ( 0.0000000000000000000, -1.000000000000000000, -1.224646799147353200E-016 ) ) ;
#70 = DIRECTION ( 'NONE',  ( -1.000000000000000000, -0.0000000000000000000, -0.0000000000000000000 ) ) ;
#71 = DIRECTION ( 'NONE',  ( 0.0000000000000000000, 1.000000000000000000, 0.0000000000000000000 ) ) ;
#72 = STYLED_ITEM ( 'NONE', ( #280 ), #120 ) ;
#73 = MANIFOLD_SOLID_BREP ( 'Ðý×ª2', #302 ) ;
#74 = CIRCLE ( 'NONE', #207, 105.2000000000000200 ) ;
#75 = DIRECTION ( 'NONE',  ( 0.0000000000000000000, 0.0000000000000000000, 1.000000000000000000 ) ) ;
#76 = CIRCLE ( 'NONE', #242, 105.2000000000000200 ) ;
#77 = VERTEX_POINT ( 'NONE', #188 ) ;
#78 = CIRCLE ( 'NONE', #124, 12.69999999999999800 ) ;
#79 = CARTESIAN_POINT ( 'NONE',  ( -0.5519199926577972300, 0.0000000000000000000, 0.0000000000000000000 ) ) ;
#80 = CARTESIAN_POINT ( 'NONE',  ( -77.19976141422765200, 0.0000000000000000000, 0.0000000000000000000 ) ) ;
#81 = COLOUR_RGB ( '',1.000000000000000000, 1.000000000000000000, 1.000000000000000000 ) ;
#82 = SURFACE_SIDE_STYLE ('',( #9 ) ) ;
#83 = AXIS2_PLACEMENT_3D ( 'NONE', #271, #316, #50 ) ;
#84 =( NAMED_UNIT ( * ) SI_UNIT ( $, .STERADIAN. ) SOLID_ANGLE_UNIT ( ) );
#85 = SPHERICAL_SURFACE ( 'NONE', #346, 23.14999999999999900 ) ;
#86 = ORIENTED_EDGE ( 'NONE', *, *, #146, .T. ) ;
#87 = EDGE_CURVE ( 'NONE', #324, #182, #138, .T. ) ;
#88 = DIRECTION ( 'NONE',  ( 0.0000000000000000000, 0.0000000000000000000, 1.000000000000000000 ) ) ;
#89 = ORIENTED_EDGE ( 'NONE', *, *, #189, .T. ) ;
#90 = ORIENTED_EDGE ( 'NONE', *, *, #113, .F. ) ;
#91 = CIRCLE ( 'NONE', #277, 23.14999999999999900 ) ;
#92 = CARTESIAN_POINT ( 'NONE',  ( 20.90190911915812300, 0.0000000000000000000, 0.0000000000000000000 ) ) ;
#93 = CARTESIAN_POINT ( 'NONE',  ( 20.90190911915812300, 0.0000000000000000000, 0.0000000000000000000 ) ) ;
#94 = MECHANICAL_DESIGN_GEOMETRIC_PRESENTATION_REPRESENTATION (  '', ( #72 ), #137 ) ;
#95 = PRESENTATION_STYLE_ASSIGNMENT (( #134 ) ) ;
#96 = ADVANCED_FACE ( 'NONE', ( #240 ), #117, .T. ) ;
#97 = CARTESIAN_POINT ( 'NONE',  ( 18.49481298983154100, 0.0000000000000000000, 0.0000000000000000000 ) ) ;
#98 = CARTESIAN_POINT ( 'NONE',  ( 14.70023858577233800, 0.0000000000000000000, 1.333794390983200300E-015 ) ) ;
#99 = LINE ( 'NONE', #7, #297 ) ;
#100 = ORIENTED_EDGE ( 'NONE', *, *, #234, .F. ) ;
#101 = CARTESIAN_POINT ( 'NONE',  ( 26.20023858577234700, 0.0000000000000000000, 1.094221915038160700E-015 ) ) ;
#102 = CARTESIAN_POINT ( 'NONE',  ( -0.5519199926577972300, 0.0000000000000000000, 12.69999999999999800 ) ) ;
#103 = ORIENTED_EDGE ( 'NONE', *, *, #342, .F. ) ;
#104 = CARTESIAN_POINT ( 'NONE',  ( -0.5519199926577972300, 0.0000000000000000000, 0.0000000000000000000 ) ) ;
#105 = DIRECTION ( 'NONE',  ( 0.0000000000000000000, 0.0000000000000000000, -1.000000000000000000 ) ) ;
#106 = AXIS2_PLACEMENT_3D ( 'NONE', #115, #265, #329 ) ;
#107 = EDGE_LOOP ( 'NONE', ( #261, #175, #229 ) ) ;
#108 = ORIENTED_EDGE ( 'NONE', *, *, #87, .T. ) ;
#109 = SURFACE_STYLE_USAGE ( .BOTH. , #225 ) ;
#110 = DIRECTION ( 'NONE',  ( -1.000000000000000000, -0.0000000000000000000, -0.0000000000000000000 ) ) ;
#111 = FACE_OUTER_BOUND ( 'NONE', #206, .T. ) ;
#112 = EDGE_LOOP ( 'NONE', ( #262, #149, #1 ) ) ;
#113 = EDGE_CURVE ( 'NONE', #140, #196, #247, .T. ) ;
#114 = DIRECTION ( 'NONE',  ( 0.0000000000000000000, 0.0000000000000000000, 1.000000000000000000 ) ) ;
#115 = CARTESIAN_POINT ( 'NONE',  ( -0.8160621761658039000, 0.0000000000000000000, 0.0000000000000000000 ) ) ;
#116 = ORIENTED_EDGE ( 'NONE', *, *, #253, .F. ) ;
#117 = SPHERICAL_SURFACE ( 'NONE', #293, 105.2000000000000200 ) ;
#118 = ORIENTED_EDGE ( 'NONE', *, *, #34, .T. ) ;
#119 = EDGE_CURVE ( 'NONE', #324, #24, #213, .T. ) ;
#120 = ADVANCED_BREP_SHAPE_REPRESENTATION ( '145159', ( #184, #73, #174 ), #345 ) ;
#121 = CIRCLE ( 'NONE', #212, 12.69999999999999900 ) ;
#122 = ORIENTED_EDGE ( 'NONE', *, *, #30, .F. ) ;
#123 = CARTESIAN_POINT ( 'NONE',  ( 37.85023858577233800, 0.0000000000000000000, -8.373427902986100400E-017 ) ) ;
#124 = AXIS2_PLACEMENT_3D ( 'NONE', #54, #10, #114 ) ;
#125 = ORIENTED_EDGE ( 'NONE', *, *, #258, .F. ) ;
#126 = ORIENTED_EDGE ( 'NONE', *, *, #253, .T. ) ;
#127 = CARTESIAN_POINT ( 'NONE',  ( 8.330238585772336900, 0.0000000000000000000, 0.0000000000000000000 ) ) ;
#128 = LINE ( 'NONE', #102, #148 ) ;
#129 = EDGE_LOOP ( 'NONE', ( #325, #86, #28, #268 ) ) ;
#130 = DIRECTION ( 'NONE',  ( 0.0000000000000000000, 0.0000000000000000000, -1.000000000000000000 ) ) ;
#131 = DIRECTION ( 'NONE',  ( -1.000000000000000000, -0.0000000000000000000, -0.0000000000000000000 ) ) ;
#132 = DIRECTION ( 'NONE',  ( 0.0000000000000000000, -1.000000000000000000, 0.0000000000000000000 ) ) ;
#133 = DIRECTION ( 'NONE',  ( 0.0000000000000000000, 0.0000000000000000000, 1.000000000000000000 ) ) ;
#134 = SURFACE_STYLE_USAGE ( .BOTH. , #82 ) ;
#135 = EDGE_CURVE ( 'NONE', #12, #196, #158, .T. ) ;
#136 =( NAMED_UNIT ( * ) SI_UNIT ( $, .STERADIAN. ) SOLID_ANGLE_UNIT ( ) );
#137 =( GEOMETRIC_REPRESENTATION_CONTEXT ( 3 ) GLOBAL_UNCERTAINTY_ASSIGNED_CONTEXT ( ( #312 ) ) GLOBAL_UNIT_ASSIGNED_CONTEXT ( ( #343, #270, #136 ) ) REPRESENTATION_CONTEXT ( 'NONE', 'WORKASPACE' ) );
#138 = CIRCLE ( 'NONE', #231, 17.87000000000001200 ) ;
#139 = CYLINDRICAL_SURFACE ( 'NONE', #227, 12.69999999999999800 ) ;
#140 = VERTEX_POINT ( 'NONE', #292 ) ;
#141 = SHAPE_DEFINITION_REPRESENTATION ( #64, #120 ) ;
#142 = CIRCLE ( 'NONE', #211, 12.69999999999999900 ) ;
#143 = CARTESIAN_POINT ( 'NONE',  ( 20.90190911915812300, 1.555301434917138400E-015, -12.69999999999999900 ) ) ;
#144 = AXIS2_PLACEMENT_3D ( 'NONE', #93, #236, #29 ) ;
#145 = AXIS2_PLACEMENT_3D ( 'NONE', #239, #192, #51 ) ;
#146 = EDGE_CURVE ( 'NONE', #182, #209, #172, .T. ) ;
#147 = DIRECTION ( 'NONE',  ( -1.000000000000000000, -0.0000000000000000000, -0.0000000000000000000 ) ) ;
#148 = VECTOR ( 'NONE', #168, 1000.000000000000000 ) ;
#149 = ORIENTED_EDGE ( 'NONE', *, *, #258, .T. ) ;
#150 = FACE_OUTER_BOUND ( 'NONE', #45, .T. ) ;
#151 = CARTESIAN_POINT ( 'NONE',  ( 27.23083754986907600, -1.555301434917142000E-015, 12.70000000000002800 ) ) ;
#152 = EDGE_CURVE ( 'NONE', #24, #339, #99, .T. ) ;
#153 = DIRECTION ( 'NONE',  ( -1.000000000000000000, -0.0000000000000000000, -0.0000000000000000000 ) ) ;
#154 = DIRECTION ( 'NONE',  ( -1.000000000000000000, -0.0000000000000000000, -0.0000000000000000000 ) ) ;
#155 = FACE_OUTER_BOUND ( 'NONE', #173, .T. ) ;
#156 = AXIS2_PLACEMENT_3D ( 'NONE', #250, #153, #202 ) ;
#157 =( NAMED_UNIT ( * ) SI_UNIT ( $, .STERADIAN. ) SOLID_ANGLE_UNIT ( ) );
#158 = LINE ( 'NONE', #235, #163 ) ;
#159 = FILL_AREA_STYLE_COLOUR ( '', #210 ) ;
#160 = FACE_OUTER_BOUND ( 'NONE', #311, .T. ) ;
#161 = ORIENTED_EDGE ( 'NONE', *, *, #34, .F. ) ;
#162 = PRODUCT ( '145159', '145159', '', ( #264 ) ) ;
#163 = VECTOR ( 'NONE', #70, 1000.000000000000000 ) ;
#164 = ORIENTED_EDGE ( 'NONE', *, *, #281, .T. ) ;
#165 = ORIENTED_EDGE ( 'NONE', *, *, #56, .F. ) ;
#166 = DIRECTION ( 'NONE',  ( 0.0000000000000000000, 0.0000000000000000000, 1.000000000000000000 ) ) ;
#167 = AXIS2_PLACEMENT_3D ( 'NONE', #127, #223, #251 ) ;
#168 = DIRECTION ( 'NONE',  ( -1.000000000000000000, -0.0000000000000000000, -0.0000000000000000000 ) ) ;
#169 = CARTESIAN_POINT ( 'NONE',  ( 18.49481298983154100, 1.555301434917138200E-015, -12.69999999999999800 ) ) ;
#170 = DIRECTION ( 'NONE',  ( 0.0000000000000000000, 0.0000000000000000000, 1.000000000000000000 ) ) ;
#171 = UNCERTAINTY_MEASURE_WITH_UNIT (LENGTH_MEASURE( 1.000000000000000100E-005 ), #243, 'distance_accuracy_value', 'NONE');
#172 = LINE ( 'NONE', #15, #67 ) ;
#173 = EDGE_LOOP ( 'NONE', ( #217, #126, #256 ) ) ;
#174 = AXIS2_PLACEMENT_3D ( 'NONE', #287, #166, #313 ) ;
#175 = ORIENTED_EDGE ( 'NONE', *, *, #119, .T. ) ;
#176 = SPHERICAL_SURFACE ( 'NONE', #179, 17.87000000000001200 ) ;
#177 = ORIENTED_EDGE ( 'NONE', *, *, #25, .T. ) ;
#178 = DIRECTION ( 'NONE',  ( -0.0000000000000000000, 1.000000000000000000, 1.224646799147353200E-016 ) ) ;
#179 = AXIS2_PLACEMENT_3D ( 'NONE', #203, #288, #88 ) ;
#180 = SPHERICAL_SURFACE ( 'NONE', #332, 105.2000000000000200 ) ;
#181 = CIRCLE ( 'NONE', #263, 12.69999999999999800 ) ;
#182 = VERTEX_POINT ( 'NONE', #143 ) ;
#183 = ADVANCED_FACE ( 'NONE', ( #59 ), #180, .T. ) ;
#184 = MANIFOLD_SOLID_BREP ( 'Ðý×ª1', #55 ) ;
#185 = CARTESIAN_POINT ( 'NONE',  ( -77.19976141422765200, 0.0000000000000000000, 0.0000000000000000000 ) ) ;
#186 = ADVANCED_FACE ( 'NONE', ( #155 ), #2, .F. ) ;
#187 = CIRCLE ( 'NONE', #144, 12.69999999999999900 ) ;
#188 = CARTESIAN_POINT ( 'NONE',  ( 26.20023858577234700, 0.0000000000000000000, -1.094221915038160700E-015 ) ) ;
#189 = EDGE_CURVE ( 'NONE', #339, #209, #205, .T. ) ;
#190 = DIRECTION ( 'NONE',  ( 0.0000000000000000000, 0.0000000000000000000, -1.000000000000000000 ) ) ;
#191 = AXIS2_PLACEMENT_3D ( 'NONE', #47, #132, #130 ) ;
#192 = DIRECTION ( 'NONE',  ( -1.000000000000000000, -0.0000000000000000000, -0.0000000000000000000 ) ) ;
#193 = SPHERICAL_SURFACE ( 'NONE', #57, 23.14999999999999900 ) ;
#194 = CARTESIAN_POINT ( 'NONE',  ( 27.23083754986907200, 0.0000000000000000000, 0.0000000000000000000 ) ) ;
#195 = SPHERICAL_SURFACE ( 'NONE', #18, 17.87000000000001200 ) ;
#196 = VERTEX_POINT ( 'NONE', #21 ) ;
#197 = DIRECTION ( 'NONE',  ( 0.0000000000000000000, 1.000000000000000000, 0.0000000000000000000 ) ) ;
#198 = DIRECTION ( 'NONE',  ( -0.0000000000000000000, -1.000000000000000000, -0.0000000000000000000 ) ) ;
#199 = PRODUCT_RELATED_PRODUCT_CATEGORY ( 'part', '', ( #162 ) ) ;
#200 = DIRECTION ( 'NONE',  ( 0.0000000000000000000, 0.0000000000000000000, 1.000000000000000000 ) ) ;
#201 = DIRECTION ( 'NONE',  ( -1.000000000000000000, -0.0000000000000000000, -0.0000000000000000000 ) ) ;
#202 = DIRECTION ( 'NONE',  ( 0.0000000000000000000, 0.0000000000000000000, 1.000000000000000000 ) ) ;
#203 = CARTESIAN_POINT ( 'NONE',  ( 8.330238585772336900, 0.0000000000000000000, 0.0000000000000000000 ) ) ;
#204 =( NAMED_UNIT ( * ) PLANE_ANGLE_UNIT ( ) SI_UNIT ( $, .RADIAN. ) );
#205 = CIRCLE ( 'NONE', #318, 12.69999999999999900 ) ;
#206 = EDGE_LOOP ( 'NONE', ( #122, #245, #333 ) ) ;
#207 = AXIS2_PLACEMENT_3D ( 'NONE', #300, #69, #276 ) ;
#208 = CARTESIAN_POINT ( 'NONE',  ( 20.90190911915812300, 0.0000000000000000000, 12.69999999999999900 ) ) ;
#209 = VERTEX_POINT ( 'NONE', #169 ) ;
#210 = COLOUR_RGB ( '',1.000000000000000000, 1.000000000000000000, 1.000000000000000000 ) ;
#211 = AXIS2_PLACEMENT_3D ( 'NONE', #92, #154, #341 ) ;
#212 = AXIS2_PLACEMENT_3D ( 'NONE', #226, #230, #334 ) ;
#213 = CIRCLE ( 'NONE', #221, 17.87000000000001200 ) ;
#214 = ADVANCED_FACE ( 'NONE', ( #344 ), #139, .T. ) ;
#215 = PRODUCT_DEFINITION ( 'Î´Öª', '', #232, #296 ) ;
#216 = ADVANCED_FACE ( 'NONE', ( #27 ), #317, .F. ) ;
#217 = ORIENTED_EDGE ( 'NONE', *, *, #267, .F. ) ;
#218 = ORIENTED_EDGE ( 'NONE', *, *, #135, .F. ) ;
#219 = CARTESIAN_POINT ( 'NONE',  ( -77.19976141422765200, 0.0000000000000000000, 0.0000000000000000000 ) ) ;
#220 = DIRECTION ( 'NONE',  ( 0.0000000000000000000, 1.000000000000000000, -0.0000000000000000000 ) ) ;
#221 = AXIS2_PLACEMENT_3D ( 'NONE', #246, #320, #338 ) ;
#222 = APPLICATION_PROTOCOL_DEFINITION ( 'draft international standard', 'automotive_design', 1998, #286 ) ;
#223 = DIRECTION ( 'NONE',  ( -0.0000000000000000000, -1.000000000000000000, -0.0000000000000000000 ) ) ;
#224 = FILL_AREA_STYLE_COLOUR ( '', #61 ) ;
#225 = SURFACE_SIDE_STYLE ('',( #228 ) ) ;
#226 = CARTESIAN_POINT ( 'NONE',  ( 18.49481298983154100, 0.0000000000000000000, 0.0000000000000000000 ) ) ;
#227 = AXIS2_PLACEMENT_3D ( 'NONE', #79, #321, #133 ) ;
#228 = SURFACE_STYLE_FILL_AREA ( #248 ) ;
#229 = ORIENTED_EDGE ( 'NONE', *, *, #6, .F. ) ;
#230 = DIRECTION ( 'NONE',  ( -1.000000000000000000, -0.0000000000000000000, -0.0000000000000000000 ) ) ;
#231 = AXIS2_PLACEMENT_3D ( 'NONE', #336, #178, #249 ) ;
#232 = PRODUCT_DEFINITION_FORMATION_WITH_SPECIFIED_SOURCE ( 'ÈÎºÎ', '', #162, .NOT_KNOWN. ) ;
#233 = CARTESIAN_POINT ( 'NONE',  ( 27.23083754986907600, 0.0000000000000000000, -12.70000000000002800 ) ) ;
#234 = EDGE_CURVE ( 'NONE', #339, #48, #257, .T. ) ;
#235 = CARTESIAN_POINT ( 'NONE',  ( -0.5519199926577972300, 1.555301434917138200E-015, -12.69999999999999800 ) ) ;
#236 = DIRECTION ( 'NONE',  ( -1.000000000000000000, -0.0000000000000000000, -0.0000000000000000000 ) ) ;
#237 = ORIENTED_EDGE ( 'NONE', *, *, #135, .T. ) ;
#238 = ADVANCED_FACE ( 'NONE', ( #150 ), #323, .T. ) ;
#239 = CARTESIAN_POINT ( 'NONE',  ( -0.8160621761658039000, 0.0000000000000000000, 0.0000000000000000000 ) ) ;
#240 = FACE_OUTER_BOUND ( 'NONE', #112, .T. ) ;
#241 = EDGE_CURVE ( 'NONE', #209, #339, #121, .T. ) ;
#242 = AXIS2_PLACEMENT_3D ( 'NONE', #219, #220, #200 ) ;
#243 =( LENGTH_UNIT ( ) NAMED_UNIT ( * ) SI_UNIT ( .MILLI., .METRE. ) );
#244 = DIRECTION ( 'NONE',  ( 0.0000000000000000000, -1.000000000000000000, -1.224646799147353200E-016 ) ) ;
#245 = ORIENTED_EDGE ( 'NONE', *, *, #241, .T. ) ;
#246 = CARTESIAN_POINT ( 'NONE',  ( 8.330238585772336900, 0.0000000000000000000, 0.0000000000000000000 ) ) ;
#247 = CIRCLE ( 'NONE', #322, 12.69999999999999800 ) ;
#248 = FILL_AREA_STYLE ('',( #224 ) ) ;
#249 = DIRECTION ( 'NONE',  ( 0.0000000000000000000, -1.224646799147353000E-016, 1.000000000000000000 ) ) ;
#250 = CARTESIAN_POINT ( 'NONE',  ( 27.23083754986907200, 0.0000000000000000000, 0.0000000000000000000 ) ) ;
#251 = DIRECTION ( 'NONE',  ( 0.0000000000000000000, 0.0000000000000000000, -1.000000000000000000 ) ) ;
#252 = CARTESIAN_POINT ( 'NONE',  ( 8.330238585772336900, 0.0000000000000000000, 0.0000000000000000000 ) ) ;
#253 = EDGE_CURVE ( 'NONE', #77, #140, #278, .T. ) ;
#254 = CARTESIAN_POINT ( 'NONE',  ( 8.330238585772336900, 0.0000000000000000000, 0.0000000000000000000 ) ) ;
#255 = AXIS2_PLACEMENT_3D ( 'NONE', #319, #22, #105 ) ;
#256 = ORIENTED_EDGE ( 'NONE', *, *, #113, .T. ) ;
#257 = CIRCLE ( 'NONE', #191, 23.14999999999999900 ) ;
#258 = EDGE_CURVE ( 'NONE', #308, #53, #74, .T. ) ;
#259 = MECHANICAL_DESIGN_GEOMETRIC_PRESENTATION_REPRESENTATION (  '', ( #26 ), #269 ) ;
#260 = DIRECTION ( 'NONE',  ( 0.0000000000000000000, -1.224646799147353200E-016, 1.000000000000000000 ) ) ;
#261 = ORIENTED_EDGE ( 'NONE', *, *, #87, .F. ) ;
#262 = ORIENTED_EDGE ( 'NONE', *, *, #281, .F. ) ;
#263 = AXIS2_PLACEMENT_3D ( 'NONE', #194, #335, #170 ) ;
#264 = PRODUCT_CONTEXT ( 'NONE', #286, 'mechanical' ) ;
#265 = DIRECTION ( 'NONE',  ( -1.000000000000000000, -0.0000000000000000000, -0.0000000000000000000 ) ) ;
#266 = APPLICATION_CONTEXT ( 'automotive_design' ) ;
#267 = EDGE_CURVE ( 'NONE', #77, #196, #272, .T. ) ;
#268 = ORIENTED_EDGE ( 'NONE', *, *, #152, .F. ) ;
#269 =( GEOMETRIC_REPRESENTATION_CONTEXT ( 3 ) GLOBAL_UNCERTAINTY_ASSIGNED_CONTEXT ( ( #171 ) ) GLOBAL_UNIT_ASSIGNED_CONTEXT ( ( #243, #330, #84 ) ) REPRESENTATION_CONTEXT ( 'NONE', 'WORKASPACE' ) );
#270 =( NAMED_UNIT ( * ) PLANE_ANGLE_UNIT ( ) SI_UNIT ( $, .RADIAN. ) );
#271 = CARTESIAN_POINT ( 'NONE',  ( 8.330238585772336900, 0.0000000000000000000, 0.0000000000000000000 ) ) ;
#272 = CIRCLE ( 'NONE', #83, 17.87000000000001200 ) ;
#273 = CYLINDRICAL_SURFACE ( 'NONE', #106, 12.69999999999999900 ) ;
#274 =( GEOMETRIC_REPRESENTATION_CONTEXT ( 3 ) GLOBAL_UNCERTAINTY_ASSIGNED_CONTEXT ( ( #46 ) ) GLOBAL_UNIT_ASSIGNED_CONTEXT ( ( #331, #4, #282 ) ) REPRESENTATION_CONTEXT ( 'NONE', 'WORKASPACE' ) );
#275 = DIRECTION ( 'NONE',  ( 0.0000000000000000000, 0.0000000000000000000, 1.000000000000000000 ) ) ;
#276 = DIRECTION ( 'NONE',  ( 0.0000000000000000000, 1.224646799147353200E-016, -1.000000000000000000 ) ) ;
#277 = AXIS2_PLACEMENT_3D ( 'NONE', #301, #347, #260 ) ;
#278 = CIRCLE ( 'NONE', #283, 17.87000000000001200 ) ;
#279 = EDGE_LOOP ( 'NONE', ( #13, #237, #90, #161 ) ) ;
#280 = PRESENTATION_STYLE_ASSIGNMENT (( #294 ) ) ;
#281 = EDGE_CURVE ( 'NONE', #308, #12, #76, .T. ) ;
#282 =( NAMED_UNIT ( * ) SI_UNIT ( $, .STERADIAN. ) SOLID_ANGLE_UNIT ( ) );
#283 = AXIS2_PLACEMENT_3D ( 'NONE', #254, #244, #43 ) ;
#284 = ADVANCED_FACE ( 'NONE', ( #32 ), #193, .T. ) ;
#285 = CIRCLE ( 'NONE', #156, 12.69999999999999800 ) ;
#286 = APPLICATION_CONTEXT ( 'automotive_design' ) ;
#287 = CARTESIAN_POINT ( 'NONE',  ( 0.0000000000000000000, 0.0000000000000000000, 0.0000000000000000000 ) ) ;
#288 = DIRECTION ( 'NONE',  ( 0.0000000000000000000, 1.000000000000000000, 0.0000000000000000000 ) ) ;
#289 = APPLICATION_PROTOCOL_DEFINITION ( 'draft international standard', 'automotive_design', 1998, #266 ) ;
#290 = ORIENTED_EDGE ( 'NONE', *, *, #119, .F. ) ;
#291 = DIRECTION ( 'NONE',  ( 0.0000000000000000000, 0.0000000000000000000, 1.000000000000000000 ) ) ;
#292 = CARTESIAN_POINT ( 'NONE',  ( 20.90190911915812300, -1.555301434917138000E-015, 12.69999999999999800 ) ) ;
#293 = AXIS2_PLACEMENT_3D ( 'NONE', #80, #306, #190 ) ;
#294 = SURFACE_STYLE_USAGE ( .BOTH. , #63 ) ;
#295 = DIRECTION ( 'NONE',  ( 0.0000000000000000000, 0.0000000000000000000, 1.000000000000000000 ) ) ;
#296 = PRODUCT_DEFINITION_CONTEXT ( 'detailed design', #266, 'design' ) ;
#297 = VECTOR ( 'NONE', #5, 1000.000000000000000 ) ;
#298 = ORIENTED_EDGE ( 'NONE', *, *, #6, .T. ) ;
#299 = FILL_AREA_STYLE_COLOUR ( '', #81 ) ;
#300 = CARTESIAN_POINT ( 'NONE',  ( -77.19976141422765200, 0.0000000000000000000, 0.0000000000000000000 ) ) ;
#301 = CARTESIAN_POINT ( 'NONE',  ( 37.85023858577233800, 0.0000000000000000000, -8.373427902986100400E-017 ) ) ;
#302 = CLOSED_SHELL ( 'NONE', ( #214, #96, #186, #216, #183, #310 ) ) ;
#303 = STYLED_ITEM ( 'NONE', ( #95 ), #73 ) ;
#304 = EDGE_LOOP ( 'NONE', ( #125, #164, #315 ) ) ;
#305 = MECHANICAL_DESIGN_GEOMETRIC_PRESENTATION_REPRESENTATION (  '', ( #303 ), #274 ) ;
#306 = DIRECTION ( 'NONE',  ( -0.0000000000000000000, -1.000000000000000000, -0.0000000000000000000 ) ) ;
#307 = FACE_OUTER_BOUND ( 'NONE', #107, .T. ) ;
#308 = VERTEX_POINT ( 'NONE', #39 ) ;
#309 = ADVANCED_FACE ( 'NONE', ( #41 ), #273, .T. ) ;
#310 = ADVANCED_FACE ( 'NONE', ( #37 ), #340, .T. ) ;
#311 = EDGE_LOOP ( 'NONE', ( #290, #108, #165 ) ) ;
#312 = UNCERTAINTY_MEASURE_WITH_UNIT (LENGTH_MEASURE( 1.000000000000000100E-005 ), #343, 'distance_accuracy_value', 'NONE');
#313 = DIRECTION ( 'NONE',  ( 1.000000000000000000, 0.0000000000000000000, 0.0000000000000000000 ) ) ;
#314 = EDGE_CURVE ( 'NONE', #53, #12, #285, .T. ) ;
#315 = ORIENTED_EDGE ( 'NONE', *, *, #314, .F. ) ;
#316 = DIRECTION ( 'NONE',  ( 0.0000000000000000000, 1.000000000000000000, -0.0000000000000000000 ) ) ;
#317 = SPHERICAL_SURFACE ( 'NONE', #167, 17.87000000000001200 ) ;
#318 = AXIS2_PLACEMENT_3D ( 'NONE', #97, #110, #295 ) ;
#319 = CARTESIAN_POINT ( 'NONE',  ( 8.330238585772336900, 0.0000000000000000000, 0.0000000000000000000 ) ) ;
#320 = DIRECTION ( 'NONE',  ( 0.0000000000000000000, -1.000000000000000000, 0.0000000000000000000 ) ) ;
#321 = DIRECTION ( 'NONE',  ( -1.000000000000000000, -0.0000000000000000000, -0.0000000000000000000 ) ) ;
#322 = AXIS2_PLACEMENT_3D ( 'NONE', #11, #147, #75 ) ;
#323 = CYLINDRICAL_SURFACE ( 'NONE', #145, 12.69999999999999900 ) ;
#324 = VERTEX_POINT ( 'NONE', #101 ) ;
#325 = ORIENTED_EDGE ( 'NONE', *, *, #56, .T. ) ;
#326 = DIRECTION ( 'NONE',  ( 0.0000000000000000000, 1.000000000000000000, 0.0000000000000000000 ) ) ;
#327 = PRESENTATION_LAYER_ASSIGNMENT (  '', '', ( #303 ) ) ;
#328 = ADVANCED_FACE ( 'NONE', ( #307 ), #195, .T. ) ;
#329 = DIRECTION ( 'NONE',  ( 0.0000000000000000000, 0.0000000000000000000, 1.000000000000000000 ) ) ;
#330 =( NAMED_UNIT ( * ) PLANE_ANGLE_UNIT ( ) SI_UNIT ( $, .RADIAN. ) );
#331 =( LENGTH_UNIT ( ) NAMED_UNIT ( * ) SI_UNIT ( .MILLI., .METRE. ) );
#332 = AXIS2_PLACEMENT_3D ( 'NONE', #185, #198, #49 ) ;
#333 = ORIENTED_EDGE ( 'NONE', *, *, #234, .T. ) ;
#334 = DIRECTION ( 'NONE',  ( 0.0000000000000000000, 0.0000000000000000000, 1.000000000000000000 ) ) ;
#335 = DIRECTION ( 'NONE',  ( -1.000000000000000000, -0.0000000000000000000, -0.0000000000000000000 ) ) ;
#336 = CARTESIAN_POINT ( 'NONE',  ( 8.330238585772336900, 0.0000000000000000000, 0.0000000000000000000 ) ) ;
#337 = DIRECTION ( 'NONE',  ( 0.0000000000000000000, 0.0000000000000000000, 1.000000000000000000 ) ) ;
#338 = DIRECTION ( 'NONE',  ( 0.0000000000000000000, 0.0000000000000000000, -1.000000000000000000 ) ) ;
#339 = VERTEX_POINT ( 'NONE', #36 ) ;
#340 = CYLINDRICAL_SURFACE ( 'NONE', #40, 12.69999999999999800 ) ;
#341 = DIRECTION ( 'NONE',  ( 0.0000000000000000000, 0.0000000000000000000, 1.000000000000000000 ) ) ;
#342 = EDGE_CURVE ( 'NONE', #196, #140, #78, .T. ) ;
#343 =( LENGTH_UNIT ( ) NAMED_UNIT ( * ) SI_UNIT ( .MILLI., .METRE. ) );
#344 = FACE_OUTER_BOUND ( 'NONE', #279, .T. ) ;
#345 =( GEOMETRIC_REPRESENTATION_CONTEXT ( 3 ) GLOBAL_UNCERTAINTY_ASSIGNED_CONTEXT ( ( #20 ) ) GLOBAL_UNIT_ASSIGNED_CONTEXT ( ( #16, #204, #157 ) ) REPRESENTATION_CONTEXT ( 'NONE', 'WORKASPACE' ) );
#346 = AXIS2_PLACEMENT_3D ( 'NONE', #123, #326, #275 ) ;
#347 = DIRECTION ( 'NONE',  ( -0.0000000000000000000, 1.000000000000000000, 1.224646799147353200E-016 ) ) ;
ENDSEC;
END-ISO-10303-21;
