ISO-10303-21;
HEADER;
FILE_DESCRIPTION (( 'STEP AP214' ),
    '1' );
FILE_NAME ('145167.STEP',
    '2019-06-11T06:25:52',
    ( 'user' ),
    ( 'Î¢ÈíÖÐ¹ú' ),
    'SwSTEP 2.0',
    'SolidWorks 2016',
    '' );
FILE_SCHEMA (( 'AUTOMOTIVE_DESIGN' ));
ENDSEC;

DATA;
#1 = CARTESIAN_POINT ( 'NONE',  ( -0.5519199926577972300, 0.0000000000000000000, 12.70000000000004200 ) ) ;
#2 = CIRCLE ( 'NONE', #93, 52.00000000000000700 ) ;
#3 = DIRECTION ( 'NONE',  ( 0.0000000000000000000, 1.000000000000000000, 0.0000000000000000000 ) ) ;
#4 = VERTEX_POINT ( 'NONE', #275 ) ;
#5 = EDGE_LOOP ( 'NONE', ( #118, #144, #251, #340 ) ) ;
#6 = CARTESIAN_POINT ( 'NONE',  ( 2.724159253807425500, 0.0000000000000000000, -3.657587758717472300E-014 ) ) ;
#7 = AXIS2_PLACEMENT_3D ( 'NONE', #287, #180, #185 ) ;
#8 = DIRECTION ( 'NONE',  ( -0.0000000000000000000, 1.000000000000000000, 1.224646799147353200E-016 ) ) ;
#9 = DIRECTION ( 'NONE',  ( 0.0000000000000000000, 0.0000000000000000000, 1.000000000000000000 ) ) ;
#10 = AXIS2_PLACEMENT_3D ( 'NONE', #183, #8, #154 ) ;
#11 = CARTESIAN_POINT ( 'NONE',  ( 2.724159253807425500, 0.0000000000000000000, -3.657587758717472300E-014 ) ) ;
#12 =( NAMED_UNIT ( * ) PLANE_ANGLE_UNIT ( ) SI_UNIT ( $, .RADIAN. ) );
#13 = CYLINDRICAL_SURFACE ( 'NONE', #152, 12.70000000000004200 ) ;
#14 = EDGE_CURVE ( 'NONE', #150, #46, #193, .T. ) ;
#15 = DIRECTION ( 'NONE',  ( -1.000000000000000000, -0.0000000000000000000, -0.0000000000000000000 ) ) ;
#16 = ORIENTED_EDGE ( 'NONE', *, *, #38, .T. ) ;
#17 = DIRECTION ( 'NONE',  ( 0.0000000000000000000, -1.224646799147353200E-016, 1.000000000000000000 ) ) ;
#18 = FACE_OUTER_BOUND ( 'NONE', #99, .T. ) ;
#19 =( GEOMETRIC_REPRESENTATION_CONTEXT ( 3 ) GLOBAL_UNCERTAINTY_ASSIGNED_CONTEXT ( ( #141 ) ) GLOBAL_UNIT_ASSIGNED_CONTEXT ( ( #259, #33, #269 ) ) REPRESENTATION_CONTEXT ( 'NONE', 'WORKASPACE' ) );
#20 = PRESENTATION_STYLE_ASSIGNMENT (( #187 ) ) ;
#21 = AXIS2_PLACEMENT_3D ( 'NONE', #75, #239, #50 ) ;
#22 = ORIENTED_EDGE ( 'NONE', *, *, #104, .F. ) ;
#23 = ADVANCED_FACE ( 'NONE', ( #42 ), #227, .T. ) ;
#24 = FACE_OUTER_BOUND ( 'NONE', #281, .T. ) ;
#25 = DIRECTION ( 'NONE',  ( 0.0000000000000000000, 0.0000000000000000000, 1.000000000000000000 ) ) ;
#26 = MECHANICAL_DESIGN_GEOMETRIC_PRESENTATION_REPRESENTATION (  '', ( #291 ), #277 ) ;
#27 = CARTESIAN_POINT ( 'NONE',  ( 2.724159253807425500, 0.0000000000000000000, -3.657587758717472300E-014 ) ) ;
#28 = PRESENTATION_LAYER_ASSIGNMENT (  '', '', ( #119 ) ) ;
#29 = DIRECTION ( 'NONE',  ( 0.0000000000000000000, 0.0000000000000000000, 1.000000000000000000 ) ) ;
#30 = ORIENTED_EDGE ( 'NONE', *, *, #38, .F. ) ;
#31 = DIRECTION ( 'NONE',  ( 0.0000000000000000000, 1.000000000000000000, 0.0000000000000000000 ) ) ;
#32 = CARTESIAN_POINT ( 'NONE',  ( -0.8160621761658039000, 1.555301434917137200E-015, -12.69999999999998900 ) ) ;
#33 =( NAMED_UNIT ( * ) PLANE_ANGLE_UNIT ( ) SI_UNIT ( $, .RADIAN. ) );
#34 = SURFACE_SIDE_STYLE ('',( #303 ) ) ;
#35 = DIRECTION ( 'NONE',  ( 0.0000000000000000000, 0.0000000000000000000, 1.000000000000000000 ) ) ;
#36 = CARTESIAN_POINT ( 'NONE',  ( 49.72415925380742900, 0.0000000000000000000, 9.893133045897369600E-015 ) ) ;
#37 = CARTESIAN_POINT ( 'NONE',  ( 53.14945052713572700, 1.555301434917137600E-015, -12.69999999999999200 ) ) ;
#38 = EDGE_CURVE ( 'NONE', #58, #150, #339, .T. ) ;
#39 = CARTESIAN_POINT ( 'NONE',  ( 2.724159253807425500, 0.0000000000000000000, -3.657587758717472300E-014 ) ) ;
#40 = ORIENTED_EDGE ( 'NONE', *, *, #164, .F. ) ;
#41 = PRESENTATION_LAYER_ASSIGNMENT (  '', '', ( #291 ) ) ;
#42 = FACE_OUTER_BOUND ( 'NONE', #5, .T. ) ;
#43 = ADVANCED_FACE ( 'NONE', ( #114 ), #260, .T. ) ;
#44 = APPLICATION_PROTOCOL_DEFINITION ( 'draft international standard', 'automotive_design', 1998, #284 ) ;
#45 = CARTESIAN_POINT ( 'NONE',  ( 57.94972848846929000, 0.0000000000000000000, 0.0000000000000000000 ) ) ;
#46 = VERTEX_POINT ( 'NONE', #321 ) ;
#47 = CARTESIAN_POINT ( 'NONE',  ( 53.14945052713574100, 0.0000000000000000000, 0.0000000000000000000 ) ) ;
#48 = SURFACE_STYLE_FILL_AREA ( #76 ) ;
#49 = EDGE_CURVE ( 'NONE', #197, #179, #90, .T. ) ;
#50 = DIRECTION ( 'NONE',  ( 0.0000000000000000000, 1.224646799147353200E-016, -1.000000000000000000 ) ) ;
#51 = ORIENTED_EDGE ( 'NONE', *, *, #106, .F. ) ;
#52 = DIRECTION ( 'NONE',  ( 0.0000000000000000000, 1.000000000000000000, 0.0000000000000000000 ) ) ;
#53 = DIRECTION ( 'NONE',  ( -1.000000000000000000, -0.0000000000000000000, -0.0000000000000000000 ) ) ;
#54 = DIRECTION ( 'NONE',  ( 0.0000000000000000000, 0.0000000000000000000, 1.000000000000000000 ) ) ;
#55 = PRODUCT_DEFINITION_CONTEXT ( 'detailed design', #225, 'design' ) ;
#56 = VECTOR ( 'NONE', #178, 1000.000000000000000 ) ;
#57 = FILL_AREA_STYLE_COLOUR ( '', #280 ) ;
#58 = VERTEX_POINT ( 'NONE', #72 ) ;
#59 = FACE_OUTER_BOUND ( 'NONE', #325, .T. ) ;
#60 = CIRCLE ( 'NONE', #245, 12.69999999999998900 ) ;
#61 = ORIENTED_EDGE ( 'NONE', *, *, #63, .T. ) ;
#62 = VERTEX_POINT ( 'NONE', #344 ) ;
#63 = EDGE_CURVE ( 'NONE', #4, #115, #297, .T. ) ;
#64 =( GEOMETRIC_REPRESENTATION_CONTEXT ( 3 ) GLOBAL_UNCERTAINTY_ASSIGNED_CONTEXT ( ( #310 ) ) GLOBAL_UNIT_ASSIGNED_CONTEXT ( ( #323, #126, #292 ) ) REPRESENTATION_CONTEXT ( 'NONE', 'WORKASPACE' ) );
#65 = SPHERICAL_SURFACE ( 'NONE', #88, 42.68999999999998400 ) ;
#66 = VECTOR ( 'NONE', #265, 1000.000000000000000 ) ;
#67 = EDGE_LOOP ( 'NONE', ( #182, #261, #337, #262 ) ) ;
#68 = VERTEX_POINT ( 'NONE', #97 ) ;
#69 = AXIS2_PLACEMENT_3D ( 'NONE', #184, #267, #105 ) ;
#70 = ADVANCED_FACE ( 'NONE', ( #24 ), #155, .F. ) ;
#71 = VECTOR ( 'NONE', #139, 1000.000000000000000 ) ;
#72 = CARTESIAN_POINT ( 'NONE',  ( 57.94972848846929700, -1.555301434917144300E-015, 12.70000000000004700 ) ) ;
#73 = FACE_OUTER_BOUND ( 'NONE', #67, .T. ) ;
#74 = EDGE_LOOP ( 'NONE', ( #30, #196, #123 ) ) ;
#75 = CARTESIAN_POINT ( 'NONE',  ( 168.7341592538074300, 0.0000000000000000000, 0.0000000000000000000 ) ) ;
#76 = FILL_AREA_STYLE ('',( #176 ) ) ;
#77 = MANIFOLD_SOLID_BREP ( 'Ðý×ª2', #247 ) ;
#78 = CARTESIAN_POINT ( 'NONE',  ( 168.7341592538074300, 0.0000000000000000000, 0.0000000000000000000 ) ) ;
#79 = CARTESIAN_POINT ( 'NONE',  ( 51.65699914665570000, 0.0000000000000000000, 0.0000000000000000000 ) ) ;
#80 = APPLICATION_PROTOCOL_DEFINITION ( 'draft international standard', 'automotive_design', 1998, #225 ) ;
#81 = DIRECTION ( 'NONE',  ( -1.000000000000000000, -0.0000000000000000000, -0.0000000000000000000 ) ) ;
#82 = AXIS2_PLACEMENT_3D ( 'NONE', #137, #3, #109 ) ;
#83 = CARTESIAN_POINT ( 'NONE',  ( -0.8160621761658039000, 0.0000000000000000000, 0.0000000000000000000 ) ) ;
#84 = CYLINDRICAL_SURFACE ( 'NONE', #327, 12.69999999999998900 ) ;
#85 = DIRECTION ( 'NONE',  ( 0.0000000000000000000, 1.000000000000000000, -0.0000000000000000000 ) ) ;
#86 = ORIENTED_EDGE ( 'NONE', *, *, #314, .F. ) ;
#87 = CARTESIAN_POINT ( 'NONE',  ( 92.41415925380741200, 0.0000000000000000000, 1.250714163867739300E-014 ) ) ;
#88 = AXIS2_PLACEMENT_3D ( 'NONE', #87, #298, #243 ) ;
#89 = AXIS2_PLACEMENT_3D ( 'NONE', #240, #149, #175 ) ;
#90 = CIRCLE ( 'NONE', #312, 42.68999999999998400 ) ;
#91 = EDGE_CURVE ( 'NONE', #58, #115, #324, .T. ) ;
#92 = ORIENTED_EDGE ( 'NONE', *, *, #140, .F. ) ;
#93 = AXIS2_PLACEMENT_3D ( 'NONE', #11, #159, #328 ) ;
#94 = ADVANCED_FACE ( 'NONE', ( #130 ), #186, .T. ) ;
#95 = DIRECTION ( 'NONE',  ( -1.000000000000000000, -0.0000000000000000000, -0.0000000000000000000 ) ) ;
#96 = FACE_OUTER_BOUND ( 'NONE', #309, .T. ) ;
#97 = CARTESIAN_POINT ( 'NONE',  ( 54.72415925380742900, 0.0000000000000000000, -3.339179590939160900E-014 ) ) ;
#98 = DIRECTION ( 'NONE',  ( 0.0000000000000000000, 0.0000000000000000000, 1.000000000000000000 ) ) ;
#99 = EDGE_LOOP ( 'NONE', ( #22, #274, #203 ) ) ;
#100 = UNCERTAINTY_MEASURE_WITH_UNIT (LENGTH_MEASURE( 1.000000000000000100E-005 ), #222, 'distance_accuracy_value', 'NONE');
#101 = CARTESIAN_POINT ( 'NONE',  ( 53.14945052713574100, 0.0000000000000000000, 12.69999999999999400 ) ) ;
#102 = MECHANICAL_DESIGN_GEOMETRIC_PRESENTATION_REPRESENTATION (  '', ( #119 ), #64 ) ;
#103 = ORIENTED_EDGE ( 'NONE', *, *, #208, .T. ) ;
#104 = EDGE_CURVE ( 'NONE', #58, #46, #116, .T. ) ;
#105 = DIRECTION ( 'NONE',  ( 0.0000000000000000000, 0.0000000000000000000, 1.000000000000000000 ) ) ;
#106 = EDGE_CURVE ( 'NONE', #334, #62, #206, .T. ) ;
#107 = DIRECTION ( 'NONE',  ( 0.0000000000000000000, -1.000000000000000000, 0.0000000000000000000 ) ) ;
#108 = ORIENTED_EDGE ( 'NONE', *, *, #214, .T. ) ;
#109 = DIRECTION ( 'NONE',  ( 0.0000000000000000000, 0.0000000000000000000, 1.000000000000000000 ) ) ;
#110 =( GEOMETRIC_REPRESENTATION_CONTEXT ( 3 ) GLOBAL_UNCERTAINTY_ASSIGNED_CONTEXT ( ( #100 ) ) GLOBAL_UNIT_ASSIGNED_CONTEXT ( ( #222, #12, #161 ) ) REPRESENTATION_CONTEXT ( 'NONE', 'WORKASPACE' ) );
#111 = CARTESIAN_POINT ( 'NONE',  ( 168.7341592538074300, 0.0000000000000000000, 0.0000000000000000000 ) ) ;
#112 = PRESENTATION_LAYER_ASSIGNMENT (  '', '', ( #230 ) ) ;
#113 = CARTESIAN_POINT ( 'NONE',  ( 53.14945052713574100, 0.0000000000000000000, 0.0000000000000000000 ) ) ;
#114 = FACE_OUTER_BOUND ( 'NONE', #250, .T. ) ;
#115 = VERTEX_POINT ( 'NONE', #101 ) ;
#116 = CIRCLE ( 'NONE', #21, 111.5100000000000100 ) ;
#117 = MECHANICAL_DESIGN_GEOMETRIC_PRESENTATION_REPRESENTATION (  '', ( #230 ), #110 ) ;
#118 = ORIENTED_EDGE ( 'NONE', *, *, #198, .F. ) ;
#119 = STYLED_ITEM ( 'NONE', ( #122 ), #77 ) ;
#120 = EDGE_LOOP ( 'NONE', ( #92, #319, #311 ) ) ;
#121 = ADVANCED_FACE ( 'NONE', ( #248 ), #335, .F. ) ;
#122 = PRESENTATION_STYLE_ASSIGNMENT (( #151 ) ) ;
#123 = ORIENTED_EDGE ( 'NONE', *, *, #14, .F. ) ;
#124 = CIRCLE ( 'NONE', #234, 12.69999999999998900 ) ;
#125 = AXIS2_PLACEMENT_3D ( 'NONE', #39, #195, #17 ) ;
#126 =( NAMED_UNIT ( * ) PLANE_ANGLE_UNIT ( ) SI_UNIT ( $, .RADIAN. ) );
#127 = DIRECTION ( 'NONE',  ( -0.0000000000000000000, -1.000000000000000000, -0.0000000000000000000 ) ) ;
#128 = ORIENTED_EDGE ( 'NONE', *, *, #91, .F. ) ;
#129 = DIRECTION ( 'NONE',  ( 0.0000000000000000000, 0.0000000000000000000, 1.000000000000000000 ) ) ;
#130 = FACE_OUTER_BOUND ( 'NONE', #173, .T. ) ;
#131 = DIRECTION ( 'NONE',  ( -1.000000000000000000, -0.0000000000000000000, -0.0000000000000000000 ) ) ;
#132 = CARTESIAN_POINT ( 'NONE',  ( 51.65699914665570000, -1.555301434917135500E-015, 12.69999999999998500 ) ) ;
#133 = CARTESIAN_POINT ( 'NONE',  ( 51.65699914665570000, 0.0000000000000000000, 0.0000000000000000000 ) ) ;
#134 = EDGE_CURVE ( 'NONE', #188, #197, #60, .T. ) ;
#135 = CIRCLE ( 'NONE', #69, 12.69999999999999000 ) ;
#136 = CARTESIAN_POINT ( 'NONE',  ( 51.65699914665570000, 0.0000000000000000000, -12.69999999999997400 ) ) ;
#137 = CARTESIAN_POINT ( 'NONE',  ( 2.724159253807425500, 0.0000000000000000000, -3.657587758717472300E-014 ) ) ;
#138 = CIRCLE ( 'NONE', #168, 12.70000000000004200 ) ;
#139 = DIRECTION ( 'NONE',  ( -1.000000000000000000, -0.0000000000000000000, -0.0000000000000000000 ) ) ;
#140 = EDGE_CURVE ( 'NONE', #165, #4, #253, .T. ) ;
#141 = UNCERTAINTY_MEASURE_WITH_UNIT (LENGTH_MEASURE( 1.000000000000000100E-005 ), #259, 'distance_accuracy_value', 'NONE');
#142 = SURFACE_STYLE_FILL_AREA ( #257 ) ;
#143 = SHAPE_DEFINITION_REPRESENTATION ( #283, #308 ) ;
#144 = ORIENTED_EDGE ( 'NONE', *, *, #189, .T. ) ;
#145 = EDGE_CURVE ( 'NONE', #334, #197, #200, .T. ) ;
#146 = ADVANCED_FACE ( 'NONE', ( #273 ), #13, .T. ) ;
#147 = LINE ( 'NONE', #210, #229 ) ;
#148 = CARTESIAN_POINT ( 'NONE',  ( 92.41415925380741200, 0.0000000000000000000, 1.250714163867739300E-014 ) ) ;
#149 = DIRECTION ( 'NONE',  ( -1.000000000000000000, -0.0000000000000000000, -0.0000000000000000000 ) ) ;
#150 = VERTEX_POINT ( 'NONE', #299 ) ;
#151 = SURFACE_STYLE_USAGE ( .BOTH. , #156 ) ;
#152 = AXIS2_PLACEMENT_3D ( 'NONE', #296, #157, #216 ) ;
#153 = DIRECTION ( 'NONE',  ( 0.0000000000000000000, 0.0000000000000000000, 1.000000000000000000 ) ) ;
#154 = DIRECTION ( 'NONE',  ( 0.0000000000000000000, -1.224646799147353200E-016, 1.000000000000000000 ) ) ;
#155 = SPHERICAL_SURFACE ( 'NONE', #347, 52.00000000000000700 ) ;
#156 = SURFACE_SIDE_STYLE ('',( #142 ) ) ;
#157 = DIRECTION ( 'NONE',  ( -1.000000000000000000, -0.0000000000000000000, -0.0000000000000000000 ) ) ;
#158 = EDGE_CURVE ( 'NONE', #68, #62, #2, .T. ) ;
#159 = DIRECTION ( 'NONE',  ( 0.0000000000000000000, -1.000000000000000000, 0.0000000000000000000 ) ) ;
#160 =( LENGTH_UNIT ( ) NAMED_UNIT ( * ) SI_UNIT ( .MILLI., .METRE. ) );
#161 =( NAMED_UNIT ( * ) SI_UNIT ( $, .STERADIAN. ) SOLID_ANGLE_UNIT ( ) );
#162 = DIRECTION ( 'NONE',  ( 0.0000000000000000000, 0.0000000000000000000, 1.000000000000000000 ) ) ;
#163 = ORIENTED_EDGE ( 'NONE', *, *, #140, .T. ) ;
#164 = EDGE_CURVE ( 'NONE', #165, #115, #213, .T. ) ;
#165 = VERTEX_POINT ( 'NONE', #190 ) ;
#166 = ORIENTED_EDGE ( 'NONE', *, *, #145, .T. ) ;
#167 = PRESENTATION_STYLE_ASSIGNMENT (( #217 ) ) ;
#168 = AXIS2_PLACEMENT_3D ( 'NONE', #224, #15, #162 ) ;
#169 = ADVANCED_FACE ( 'NONE', ( #73 ), #290, .T. ) ;
#170 = AXIS2_PLACEMENT_3D ( 'NONE', #6, #31, #153 ) ;
#171 = AXIS2_PLACEMENT_3D ( 'NONE', #45, #207, #25 ) ;
#172 = FILL_AREA_STYLE_COLOUR ( '', #278 ) ;
#173 = EDGE_LOOP ( 'NONE', ( #246, #293, #51 ) ) ;
#174 = AXIS2_PLACEMENT_3D ( 'NONE', #83, #131, #9 ) ;
#175 = DIRECTION ( 'NONE',  ( 0.0000000000000000000, 0.0000000000000000000, 1.000000000000000000 ) ) ;
#176 = FILL_AREA_STYLE_COLOUR ( '', #331 ) ;
#177 = MANIFOLD_SOLID_BREP ( 'Ðý×ª1', #238 ) ;
#178 = DIRECTION ( 'NONE',  ( -1.000000000000000000, -0.0000000000000000000, -0.0000000000000000000 ) ) ;
#179 = VERTEX_POINT ( 'NONE', #36 ) ;
#180 = DIRECTION ( 'NONE',  ( 0.0000000000000000000, -1.000000000000000000, -1.224646799147353200E-016 ) ) ;
#181 = AXIS2_PLACEMENT_3D ( 'NONE', #288, #343, #255 ) ;
#182 = ORIENTED_EDGE ( 'NONE', *, *, #145, .F. ) ;
#183 = CARTESIAN_POINT ( 'NONE',  ( 2.724159253807425500, 0.0000000000000000000, -3.657587758717472300E-014 ) ) ;
#184 = CARTESIAN_POINT ( 'NONE',  ( 53.14945052713572700, 0.0000000000000000000, 0.0000000000000000000 ) ) ;
#185 = DIRECTION ( 'NONE',  ( 0.0000000000000000000, 1.224646799147353200E-016, -1.000000000000000000 ) ) ;
#186 = SPHERICAL_SURFACE ( 'NONE', #170, 52.00000000000000700 ) ;
#187 = SURFACE_STYLE_USAGE ( .BOTH. , #34 ) ;
#188 = VERTEX_POINT ( 'NONE', #132 ) ;
#189 = EDGE_CURVE ( 'NONE', #150, #58, #138, .T. ) ;
#190 = CARTESIAN_POINT ( 'NONE',  ( 54.72415925380742900, 0.0000000000000000000, -3.339179590939160900E-014 ) ) ;
#191 = CARTESIAN_POINT ( 'NONE',  ( 0.0000000000000000000, 0.0000000000000000000, 0.0000000000000000000 ) ) ;
#192 = CARTESIAN_POINT ( 'NONE',  ( -0.5519199926577972300, 1.555301434917143600E-015, -12.70000000000004200 ) ) ;
#193 = CIRCLE ( 'NONE', #271, 111.5100000000000100 ) ;
#194 = AXIS2_PLACEMENT_3D ( 'NONE', #302, #107, #268 ) ;
#195 = DIRECTION ( 'NONE',  ( -0.0000000000000000000, 1.000000000000000000, 1.224646799147353200E-016 ) ) ;
#196 = ORIENTED_EDGE ( 'NONE', *, *, #104, .T. ) ;
#197 = VERTEX_POINT ( 'NONE', #136 ) ;
#198 = EDGE_CURVE ( 'NONE', #150, #4, #220, .T. ) ;
#199 = CIRCLE ( 'NONE', #336, 12.70000000000004000 ) ;
#200 = LINE ( 'NONE', #32, #66 ) ;
#201 = EDGE_LOOP ( 'NONE', ( #16, #232, #276, #128 ) ) ;
#202 = UNCERTAINTY_MEASURE_WITH_UNIT (LENGTH_MEASURE( 1.000000000000000100E-005 ), #160, 'distance_accuracy_value', 'NONE');
#203 = ORIENTED_EDGE ( 'NONE', *, *, #14, .T. ) ;
#204 = ADVANCED_FACE ( 'NONE', ( #18 ), #286, .F. ) ;
#205 = DIRECTION ( 'NONE',  ( 0.0000000000000000000, 0.0000000000000000000, 1.000000000000000000 ) ) ;
#206 = CIRCLE ( 'NONE', #89, 12.69999999999999000 ) ;
#207 = DIRECTION ( 'NONE',  ( -1.000000000000000000, -0.0000000000000000000, -0.0000000000000000000 ) ) ;
#208 = EDGE_CURVE ( 'NONE', #68, #334, #279, .T. ) ;
#209 = DIRECTION ( 'NONE',  ( 0.0000000000000000000, 0.0000000000000000000, 1.000000000000000000 ) ) ;
#210 = CARTESIAN_POINT ( 'NONE',  ( -0.8160621761658039000, 0.0000000000000000000, 12.69999999999998900 ) ) ;
#211 = FACE_OUTER_BOUND ( 'NONE', #226, .T. ) ;
#212 = DIRECTION ( 'NONE',  ( 0.0000000000000000000, 0.0000000000000000000, 1.000000000000000000 ) ) ;
#213 = CIRCLE ( 'NONE', #194, 52.00000000000000700 ) ;
#214 = EDGE_CURVE ( 'NONE', #62, #334, #135, .T. ) ;
#215 = ORIENTED_EDGE ( 'NONE', *, *, #300, .T. ) ;
#216 = DIRECTION ( 'NONE',  ( 0.0000000000000000000, 0.0000000000000000000, 1.000000000000000000 ) ) ;
#217 = SURFACE_STYLE_USAGE ( .BOTH. , #252 ) ;
#218 = PRODUCT_RELATED_PRODUCT_CATEGORY ( 'part', '', ( #228 ) ) ;
#219 = CARTESIAN_POINT ( 'NONE',  ( 2.724159253807425500, 0.0000000000000000000, -3.657587758717472300E-014 ) ) ;
#220 = LINE ( 'NONE', #192, #71 ) ;
#221 = FILL_AREA_STYLE ('',( #57 ) ) ;
#222 =( LENGTH_UNIT ( ) NAMED_UNIT ( * ) SI_UNIT ( .MILLI., .METRE. ) );
#223 =( NAMED_UNIT ( * ) PLANE_ANGLE_UNIT ( ) SI_UNIT ( $, .RADIAN. ) );
#224 = CARTESIAN_POINT ( 'NONE',  ( 57.94972848846929000, 0.0000000000000000000, 0.0000000000000000000 ) ) ;
#225 = APPLICATION_CONTEXT ( 'automotive_design' ) ;
#226 = EDGE_LOOP ( 'NONE', ( #86, #242, #315 ) ) ;
#227 = CYLINDRICAL_SURFACE ( 'NONE', #294, 12.70000000000004200 ) ;
#228 = PRODUCT ( '145167', '145167', '', ( #329 ) ) ;
#229 = VECTOR ( 'NONE', #305, 1000.000000000000000 ) ;
#230 = STYLED_ITEM ( 'NONE', ( #20 ), #177 ) ;
#231 = PRODUCT_DEFINITION ( 'Î´Öª', '', #254, #55 ) ;
#232 = ORIENTED_EDGE ( 'NONE', *, *, #198, .T. ) ;
#233 = ADVANCED_FACE ( 'NONE', ( #211 ), #65, .T. ) ;
#234 = AXIS2_PLACEMENT_3D ( 'NONE', #133, #53, #264 ) ;
#235 = ORIENTED_EDGE ( 'NONE', *, *, #214, .F. ) ;
#236 = DIRECTION ( 'NONE',  ( 0.0000000000000000000, 0.0000000000000000000, 1.000000000000000000 ) ) ;
#237 = DIRECTION ( 'NONE',  ( 0.0000000000000000000, 1.000000000000000000, 0.0000000000000000000 ) ) ;
#238 = CLOSED_SHELL ( 'NONE', ( #341, #313, #43, #233, #169, #94 ) ) ;
#239 = DIRECTION ( 'NONE',  ( 0.0000000000000000000, -1.000000000000000000, -1.224646799147353200E-016 ) ) ;
#240 = CARTESIAN_POINT ( 'NONE',  ( 53.14945052713572700, 0.0000000000000000000, 0.0000000000000000000 ) ) ;
#241 = DIRECTION ( 'NONE',  ( -1.000000000000000000, -0.0000000000000000000, -0.0000000000000000000 ) ) ;
#242 = ORIENTED_EDGE ( 'NONE', *, *, #134, .T. ) ;
#243 = DIRECTION ( 'NONE',  ( 0.0000000000000000000, 0.0000000000000000000, -1.000000000000000000 ) ) ;
#244 = CIRCLE ( 'NONE', #7, 42.68999999999998400 ) ;
#245 = AXIS2_PLACEMENT_3D ( 'NONE', #79, #241, #54 ) ;
#246 = ORIENTED_EDGE ( 'NONE', *, *, #208, .F. ) ;
#247 = CLOSED_SHELL ( 'NONE', ( #146, #121, #70, #285, #204, #23 ) ) ;
#248 = FACE_OUTER_BOUND ( 'NONE', #74, .T. ) ;
#249 = ORIENTED_EDGE ( 'NONE', *, *, #314, .T. ) ;
#250 = EDGE_LOOP ( 'NONE', ( #215, #249, #256 ) ) ;
#251 = ORIENTED_EDGE ( 'NONE', *, *, #91, .T. ) ;
#252 = SURFACE_SIDE_STYLE ('',( #48 ) ) ;
#253 = CIRCLE ( 'NONE', #10, 52.00000000000000700 ) ;
#254 = PRODUCT_DEFINITION_FORMATION_WITH_SPECIFIED_SOURCE ( 'ÈÎºÎ', '', #228, .NOT_KNOWN. ) ;
#255 = DIRECTION ( 'NONE',  ( 0.0000000000000000000, 0.0000000000000000000, -1.000000000000000000 ) ) ;
#256 = ORIENTED_EDGE ( 'NONE', *, *, #49, .F. ) ;
#257 = FILL_AREA_STYLE ('',( #172 ) ) ;
#258 = CARTESIAN_POINT ( 'NONE',  ( 168.7341592538074300, 0.0000000000000000000, 0.0000000000000000000 ) ) ;
#259 =( LENGTH_UNIT ( ) NAMED_UNIT ( * ) SI_UNIT ( .MILLI., .METRE. ) );
#260 = SPHERICAL_SURFACE ( 'NONE', #181, 42.68999999999998400 ) ;
#261 = ORIENTED_EDGE ( 'NONE', *, *, #106, .T. ) ;
#262 = ORIENTED_EDGE ( 'NONE', *, *, #300, .F. ) ;
#263 = DIRECTION ( 'NONE',  ( 0.0000000000000000000, 0.0000000000000000000, -1.000000000000000000 ) ) ;
#264 = DIRECTION ( 'NONE',  ( 0.0000000000000000000, 0.0000000000000000000, 1.000000000000000000 ) ) ;
#265 = DIRECTION ( 'NONE',  ( -1.000000000000000000, -0.0000000000000000000, -0.0000000000000000000 ) ) ;
#266 = DIRECTION ( 'NONE',  ( 1.000000000000000000, 0.0000000000000000000, 0.0000000000000000000 ) ) ;
#267 = DIRECTION ( 'NONE',  ( -1.000000000000000000, -0.0000000000000000000, -0.0000000000000000000 ) ) ;
#268 = DIRECTION ( 'NONE',  ( 0.0000000000000000000, 0.0000000000000000000, -1.000000000000000000 ) ) ;
#269 =( NAMED_UNIT ( * ) SI_UNIT ( $, .STERADIAN. ) SOLID_ANGLE_UNIT ( ) );
#270 = FACE_OUTER_BOUND ( 'NONE', #120, .T. ) ;
#271 = AXIS2_PLACEMENT_3D ( 'NONE', #258, #85, #236 ) ;
#272 = DIRECTION ( 'NONE',  ( 0.0000000000000000000, 0.0000000000000000000, -1.000000000000000000 ) ) ;
#273 = FACE_OUTER_BOUND ( 'NONE', #201, .T. ) ;
#274 = ORIENTED_EDGE ( 'NONE', *, *, #189, .F. ) ;
#275 = CARTESIAN_POINT ( 'NONE',  ( 53.14945052713574100, 1.555301434917138000E-015, -12.70000000000003100 ) ) ;
#276 = ORIENTED_EDGE ( 'NONE', *, *, #295, .F. ) ;
#277 =( GEOMETRIC_REPRESENTATION_CONTEXT ( 3 ) GLOBAL_UNCERTAINTY_ASSIGNED_CONTEXT ( ( #202 ) ) GLOBAL_UNIT_ASSIGNED_CONTEXT ( ( #160, #223, #316 ) ) REPRESENTATION_CONTEXT ( 'NONE', 'WORKASPACE' ) );
#278 = COLOUR_RGB ( '',1.000000000000000000, 1.000000000000000000, 1.000000000000000000 ) ;
#279 = CIRCLE ( 'NONE', #125, 52.00000000000000700 ) ;
#280 = COLOUR_RGB ( '',1.000000000000000000, 1.000000000000000000, 1.000000000000000000 ) ;
#281 = EDGE_LOOP ( 'NONE', ( #40, #163, #61 ) ) ;
#282 = AXIS2_PLACEMENT_3D ( 'NONE', #47, #289, #98 ) ;
#283 = PRODUCT_DEFINITION_SHAPE ( 'NONE', 'NONE',  #231 ) ;
#284 = APPLICATION_CONTEXT ( 'automotive_design' ) ;
#285 = ADVANCED_FACE ( 'NONE', ( #270 ), #345, .F. ) ;
#286 = SPHERICAL_SURFACE ( 'NONE', #330, 111.5100000000000100 ) ;
#287 = CARTESIAN_POINT ( 'NONE',  ( 92.41415925380741200, 0.0000000000000000000, 1.250714163867739300E-014 ) ) ;
#288 = CARTESIAN_POINT ( 'NONE',  ( 92.41415925380741200, 0.0000000000000000000, 1.250714163867739300E-014 ) ) ;
#289 = DIRECTION ( 'NONE',  ( -1.000000000000000000, -0.0000000000000000000, -0.0000000000000000000 ) ) ;
#290 = CYLINDRICAL_SURFACE ( 'NONE', #174, 12.69999999999998900 ) ;
#291 = STYLED_ITEM ( 'NONE', ( #167 ), #308 ) ;
#292 =( NAMED_UNIT ( * ) SI_UNIT ( $, .STERADIAN. ) SOLID_ANGLE_UNIT ( ) );
#293 = ORIENTED_EDGE ( 'NONE', *, *, #158, .T. ) ;
#294 = AXIS2_PLACEMENT_3D ( 'NONE', #304, #95, #212 ) ;
#295 = EDGE_CURVE ( 'NONE', #115, #4, #199, .T. ) ;
#296 = CARTESIAN_POINT ( 'NONE',  ( -0.5519199926577972300, 0.0000000000000000000, 0.0000000000000000000 ) ) ;
#297 = CIRCLE ( 'NONE', #282, 12.70000000000004000 ) ;
#298 = DIRECTION ( 'NONE',  ( -0.0000000000000000000, -1.000000000000000000, -0.0000000000000000000 ) ) ;
#299 = CARTESIAN_POINT ( 'NONE',  ( 57.94972848846929700, 0.0000000000000000000, -12.70000000000004700 ) ) ;
#300 = EDGE_CURVE ( 'NONE', #197, #188, #124, .T. ) ;
#301 = SPHERICAL_SURFACE ( 'NONE', #82, 52.00000000000000700 ) ;
#302 = CARTESIAN_POINT ( 'NONE',  ( 2.724159253807425500, 0.0000000000000000000, -3.657587758717472300E-014 ) ) ;
#303 = SURFACE_STYLE_FILL_AREA ( #221 ) ;
#304 = CARTESIAN_POINT ( 'NONE',  ( -0.5519199926577972300, 0.0000000000000000000, 0.0000000000000000000 ) ) ;
#305 = DIRECTION ( 'NONE',  ( -1.000000000000000000, -0.0000000000000000000, -0.0000000000000000000 ) ) ;
#306 = ORIENTED_EDGE ( 'NONE', *, *, #134, .F. ) ;
#307 = DIRECTION ( 'NONE',  ( -0.0000000000000000000, -1.000000000000000000, -0.0000000000000000000 ) ) ;
#308 = ADVANCED_BREP_SHAPE_REPRESENTATION ( '145167', ( #177, #77, #333 ), #19 ) ;
#309 = EDGE_LOOP ( 'NONE', ( #108, #166, #306, #332 ) ) ;
#310 = UNCERTAINTY_MEASURE_WITH_UNIT (LENGTH_MEASURE( 1.000000000000000100E-005 ), #323, 'distance_accuracy_value', 'NONE');
#311 = ORIENTED_EDGE ( 'NONE', *, *, #295, .T. ) ;
#312 = AXIS2_PLACEMENT_3D ( 'NONE', #148, #318, #209 ) ;
#313 = ADVANCED_FACE ( 'NONE', ( #96 ), #84, .T. ) ;
#314 = EDGE_CURVE ( 'NONE', #188, #179, #244, .T. ) ;
#315 = ORIENTED_EDGE ( 'NONE', *, *, #49, .T. ) ;
#316 =( NAMED_UNIT ( * ) SI_UNIT ( $, .STERADIAN. ) SOLID_ANGLE_UNIT ( ) );
#317 = AXIS2_PLACEMENT_3D ( 'NONE', #78, #127, #263 ) ;
#318 = DIRECTION ( 'NONE',  ( 0.0000000000000000000, 1.000000000000000000, -0.0000000000000000000 ) ) ;
#319 = ORIENTED_EDGE ( 'NONE', *, *, #164, .T. ) ;
#320 = ORIENTED_EDGE ( 'NONE', *, *, #158, .F. ) ;
#321 = CARTESIAN_POINT ( 'NONE',  ( 57.22415925380742900, 0.0000000000000000000, -6.828018228646068200E-015 ) ) ;
#322 = DIRECTION ( 'NONE',  ( 0.0000000000000000000, 0.0000000000000000000, 1.000000000000000000 ) ) ;
#323 =( LENGTH_UNIT ( ) NAMED_UNIT ( * ) SI_UNIT ( .MILLI., .METRE. ) );
#324 = LINE ( 'NONE', #1, #56 ) ;
#325 = EDGE_LOOP ( 'NONE', ( #320, #103, #235 ) ) ;
#326 = CARTESIAN_POINT ( 'NONE',  ( -0.8160621761658039000, 0.0000000000000000000, 0.0000000000000000000 ) ) ;
#327 = AXIS2_PLACEMENT_3D ( 'NONE', #326, #81, #322 ) ;
#328 = DIRECTION ( 'NONE',  ( 0.0000000000000000000, 0.0000000000000000000, -1.000000000000000000 ) ) ;
#329 = PRODUCT_CONTEXT ( 'NONE', #284, 'mechanical' ) ;
#330 = AXIS2_PLACEMENT_3D ( 'NONE', #111, #307, #272 ) ;
#331 = COLOUR_RGB ( '',1.000000000000000000, 1.000000000000000000, 1.000000000000000000 ) ;
#332 = ORIENTED_EDGE ( 'NONE', *, *, #338, .F. ) ;
#333 = AXIS2_PLACEMENT_3D ( 'NONE', #191, #35, #266 ) ;
#334 = VERTEX_POINT ( 'NONE', #37 ) ;
#335 = SPHERICAL_SURFACE ( 'NONE', #317, 111.5100000000000100 ) ;
#336 = AXIS2_PLACEMENT_3D ( 'NONE', #113, #346, #29 ) ;
#337 = ORIENTED_EDGE ( 'NONE', *, *, #338, .T. ) ;
#338 = EDGE_CURVE ( 'NONE', #62, #188, #147, .T. ) ;
#339 = CIRCLE ( 'NONE', #171, 12.70000000000004200 ) ;
#340 = ORIENTED_EDGE ( 'NONE', *, *, #63, .F. ) ;
#341 = ADVANCED_FACE ( 'NONE', ( #59 ), #301, .T. ) ;
#342 = AXIS2_PLACEMENT_3D ( 'NONE', #219, #52, #129 ) ;
#343 = DIRECTION ( 'NONE',  ( -0.0000000000000000000, -1.000000000000000000, -0.0000000000000000000 ) ) ;
#344 = CARTESIAN_POINT ( 'NONE',  ( 53.14945052713572700, 0.0000000000000000000, 12.69999999999999000 ) ) ;
#345 = SPHERICAL_SURFACE ( 'NONE', #342, 52.00000000000000700 ) ;
#346 = DIRECTION ( 'NONE',  ( -1.000000000000000000, -0.0000000000000000000, -0.0000000000000000000 ) ) ;
#347 = AXIS2_PLACEMENT_3D ( 'NONE', #27, #237, #205 ) ;
ENDSEC;
END-ISO-10303-21;
