ISO-10303-21;
HEADER;
FILE_DESCRIPTION (( 'STEP AP214' ),
    '1' );
FILE_NAME ('145170.STEP',
    '2019-06-11T08:10:55',
    ( 'user' ),
    ( 'Î¢ÈíÖÐ¹ú' ),
    'SwSTEP 2.0',
    'SolidWorks 2016',
    '' );
FILE_SCHEMA (( 'AUTOMOTIVE_DESIGN' ));
ENDSEC;

DATA;
#1 = DIRECTION ( 'NONE',  ( -1.000000000000000000, -0.0000000000000000000, -0.0000000000000000000 ) ) ;
#2 = EDGE_LOOP ( 'NONE', ( #158, #95, #152 ) ) ;
#3 = DIRECTION ( 'NONE',  ( -0.0000000000000000000, -1.000000000000000000, -0.0000000000000000000 ) ) ;
#4 = PRODUCT_RELATED_PRODUCT_CATEGORY ( 'part', '', ( #308 ) ) ;
#5 = EDGE_LOOP ( 'NONE', ( #292, #68, #238, #252 ) ) ;
#6 = VERTEX_POINT ( 'NONE', #223 ) ;
#7 = EDGE_CURVE ( 'NONE', #88, #315, #114, .T. ) ;
#8 = DIRECTION ( 'NONE',  ( 0.0000000000000000000, 0.0000000000000000000, 1.000000000000000000 ) ) ;
#9 = CARTESIAN_POINT ( 'NONE',  ( 67.09275603421232900, 0.0000000000000000000, 0.0000000000000000000 ) ) ;
#10 = DIRECTION ( 'NONE',  ( 0.0000000000000000000, 0.0000000000000000000, 1.000000000000000000 ) ) ;
#11 = ORIENTED_EDGE ( 'NONE', *, *, #228, .T. ) ;
#12 = VERTEX_POINT ( 'NONE', #261 ) ;
#13 = CIRCLE ( 'NONE', #78, 68.54000000000002000 ) ;
#14 = AXIS2_PLACEMENT_3D ( 'NONE', #293, #175, #42 ) ;
#15 = CARTESIAN_POINT ( 'NONE',  ( -4.668257514210329100, 0.0000000000000000000, -3.765318713007809200E-014 ) ) ;
#16 = CIRCLE ( 'NONE', #178, 12.70000000000002800 ) ;
#17 = CIRCLE ( 'NONE', #182, 68.54000000000002000 ) ;
#18 = ADVANCED_FACE ( 'NONE', ( #92 ), #319, .F. ) ;
#19 = ORIENTED_EDGE ( 'NONE', *, *, #64, .T. ) ;
#20 = AXIS2_PLACEMENT_3D ( 'NONE', #314, #196, #113 ) ;
#21 = ADVANCED_FACE ( 'NONE', ( #35 ), #31, .T. ) ;
#22 = VECTOR ( 'NONE', #148, 1000.000000000000000 ) ;
#23 = CARTESIAN_POINT ( 'NONE',  ( -4.668257514210329100, 0.0000000000000000000, -3.765318713007809200E-014 ) ) ;
#24 = EDGE_CURVE ( 'NONE', #88, #341, #312, .T. ) ;
#25 = CARTESIAN_POINT ( 'NONE',  ( 66.37174248578968200, 0.0000000000000000000, -6.870880866616224500E-015 ) ) ;
#26 = DIRECTION ( 'NONE',  ( -1.000000000000000000, -0.0000000000000000000, -0.0000000000000000000 ) ) ;
#27 = ORIENTED_EDGE ( 'NONE', *, *, #185, .F. ) ;
#28 = CIRCLE ( 'NONE', #139, 12.69999999999999800 ) ;
#29 = CARTESIAN_POINT ( 'NONE',  ( -0.8160621761658039000, 0.0000000000000000000, 0.0000000000000000000 ) ) ;
#30 = AXIS2_PLACEMENT_3D ( 'NONE', #244, #264, #278 ) ;
#31 = CYLINDRICAL_SURFACE ( 'NONE', #310, 12.70000000000002800 ) ;
#32 = DIRECTION ( 'NONE',  ( 0.0000000000000000000, -1.224646799147353200E-016, 1.000000000000000000 ) ) ;
#33 = CARTESIAN_POINT ( 'NONE',  ( 60.93160501543321300, 0.0000000000000000000, -12.69999999999997100 ) ) ;
#34 = EDGE_LOOP ( 'NONE', ( #212, #107, #346 ) ) ;
#35 = FACE_OUTER_BOUND ( 'NONE', #5, .T. ) ;
#36 = AXIS2_PLACEMENT_3D ( 'NONE', #15, #141, #340 ) ;
#37 = UNCERTAINTY_MEASURE_WITH_UNIT (LENGTH_MEASURE( 1.000000000000000100E-005 ), #171, 'distance_accuracy_value', 'NONE');
#38 = ORIENTED_EDGE ( 'NONE', *, *, #214, .T. ) ;
#39 = AXIS2_PLACEMENT_3D ( 'NONE', #290, #3, #265 ) ;
#40 = EDGE_LOOP ( 'NONE', ( #217, #183, #120 ) ) ;
#41 = DIRECTION ( 'NONE',  ( -0.0000000000000000000, -1.000000000000000000, -0.0000000000000000000 ) ) ;
#42 = DIRECTION ( 'NONE',  ( 0.0000000000000000000, 0.0000000000000000000, 1.000000000000000000 ) ) ;
#43 = CARTESIAN_POINT ( 'NONE',  ( -0.5519199926577972300, 0.0000000000000000000, 0.0000000000000000000 ) ) ;
#44 = CARTESIAN_POINT ( 'NONE',  ( 62.68485377250010500, 1.555301434917138200E-015, -12.69999999999999800 ) ) ;
#45 = COLOUR_RGB ( '',1.000000000000000000, 1.000000000000000000, 1.000000000000000000 ) ;
#46 = CARTESIAN_POINT ( 'NONE',  ( 178.5817424857896800, 0.0000000000000000000, 0.0000000000000000000 ) ) ;
#47 = FILL_AREA_STYLE_COLOUR ( '', #197 ) ;
#48 = COLOUR_RGB ( '',1.000000000000000000, 1.000000000000000000, 1.000000000000000000 ) ;
#49 = AXIS2_PLACEMENT_3D ( 'NONE', #29, #173, #59 ) ;
#50 = CYLINDRICAL_SURFACE ( 'NONE', #49, 12.69999999999999800 ) ;
#51 = VERTEX_POINT ( 'NONE', #149 ) ;
#52 = FILL_AREA_STYLE_COLOUR ( '', #48 ) ;
#53 = EDGE_CURVE ( 'NONE', #6, #206, #231, .T. ) ;
#54 = SPHERICAL_SURFACE ( 'NONE', #342, 52.47999999999999000 ) ;
#55 = CARTESIAN_POINT ( 'NONE',  ( 62.68485377250010500, 0.0000000000000000000, 12.69999999999999800 ) ) ;
#56 = CARTESIAN_POINT ( 'NONE',  ( -4.668257514210329100, 0.0000000000000000000, -3.765318713007809200E-014 ) ) ;
#57 = DIRECTION ( 'NONE',  ( 0.0000000000000000000, 1.000000000000000000, 0.0000000000000000000 ) ) ;
#58 = EDGE_LOOP ( 'NONE', ( #336, #195, #224 ) ) ;
#59 = DIRECTION ( 'NONE',  ( 0.0000000000000000000, 0.0000000000000000000, 1.000000000000000000 ) ) ;
#60 = VERTEX_POINT ( 'NONE', #103 ) ;
#61 = AXIS2_PLACEMENT_3D ( 'NONE', #46, #215, #170 ) ;
#62 = DIRECTION ( 'NONE',  ( 0.0000000000000000000, 1.000000000000000000, -0.0000000000000000000 ) ) ;
#63 = AXIS2_PLACEMENT_3D ( 'NONE', #236, #41, #259 ) ;
#64 = EDGE_CURVE ( 'NONE', #206, #6, #168, .T. ) ;
#65 = ORIENTED_EDGE ( 'NONE', *, *, #74, .F. ) ;
#66 = FACE_OUTER_BOUND ( 'NONE', #40, .T. ) ;
#67 = VERTEX_POINT ( 'NONE', #209 ) ;
#68 = ORIENTED_EDGE ( 'NONE', *, *, #53, .T. ) ;
#69 =( GEOMETRIC_REPRESENTATION_CONTEXT ( 3 ) GLOBAL_UNCERTAINTY_ASSIGNED_CONTEXT ( ( #85 ) ) GLOBAL_UNIT_ASSIGNED_CONTEXT ( ( #166, #73, #187 ) ) REPRESENTATION_CONTEXT ( 'NONE', 'WORKASPACE' ) );
#70 =( NAMED_UNIT ( * ) SI_UNIT ( $, .STERADIAN. ) SOLID_ANGLE_UNIT ( ) );
#71 = EDGE_LOOP ( 'NONE', ( #11, #164, #99, #126 ) ) ;
#72 = AXIS2_PLACEMENT_3D ( 'NONE', #104, #203, #144 ) ;
#73 =( NAMED_UNIT ( * ) PLANE_ANGLE_UNIT ( ) SI_UNIT ( $, .RADIAN. ) );
#74 = EDGE_CURVE ( 'NONE', #315, #12, #301, .T. ) ;
#75 = FILL_AREA_STYLE ('',( #47 ) ) ;
#76 = VERTEX_POINT ( 'NONE', #25 ) ;
#77 = DIRECTION ( 'NONE',  ( -1.000000000000000000, -0.0000000000000000000, -0.0000000000000000000 ) ) ;
#78 = AXIS2_PLACEMENT_3D ( 'NONE', #23, #140, #32 ) ;
#79 = SPHERICAL_SURFACE ( 'NONE', #39, 52.47999999999999000 ) ;
#80 = UNCERTAINTY_MEASURE_WITH_UNIT (LENGTH_MEASURE( 1.000000000000000100E-005 ), #304, 'distance_accuracy_value', 'NONE');
#81 = DIRECTION ( 'NONE',  ( 0.0000000000000000000, 0.0000000000000000000, -1.000000000000000000 ) ) ;
#82 = AXIS2_PLACEMENT_3D ( 'NONE', #111, #229, #124 ) ;
#83 = SPHERICAL_SURFACE ( 'NONE', #20, 68.54000000000002000 ) ;
#84 = CARTESIAN_POINT ( 'NONE',  ( 178.5817424857896800, 0.0000000000000000000, 0.0000000000000000000 ) ) ;
#85 = UNCERTAINTY_MEASURE_WITH_UNIT (LENGTH_MEASURE( 1.000000000000000100E-005 ), #166, 'distance_accuracy_value', 'NONE');
#86 = DIRECTION ( 'NONE',  ( 1.000000000000000000, 0.0000000000000000000, 0.0000000000000000000 ) ) ;
#87 = CIRCLE ( 'NONE', #36, 68.54000000000002000 ) ;
#88 = VERTEX_POINT ( 'NONE', #44 ) ;
#89 = EDGE_CURVE ( 'NONE', #137, #67, #242, .T. ) ;
#90 = CIRCLE ( 'NONE', #30, 52.47999999999999000 ) ;
#91 = CARTESIAN_POINT ( 'NONE',  ( -4.668257514210329100, 0.0000000000000000000, -3.765318713007809200E-014 ) ) ;
#92 = FACE_OUTER_BOUND ( 'NONE', #34, .T. ) ;
#93 = AXIS2_PLACEMENT_3D ( 'NONE', #9, #221, #317 ) ;
#94 = DIRECTION ( 'NONE',  ( 0.0000000000000000000, 0.0000000000000000000, 1.000000000000000000 ) ) ;
#95 = ORIENTED_EDGE ( 'NONE', *, *, #89, .T. ) ;
#96 = PRODUCT_DEFINITION_CONTEXT ( 'detailed design', #230, 'design' ) ;
#97 = ADVANCED_FACE ( 'NONE', ( #219 ), #83, .F. ) ;
#98 = DIRECTION ( 'NONE',  ( 0.0000000000000000000, 0.0000000000000000000, 1.000000000000000000 ) ) ;
#99 = ORIENTED_EDGE ( 'NONE', *, *, #323, .F. ) ;
#100 = STYLED_ITEM ( 'NONE', ( #193 ), #226 ) ;
#101 = EDGE_CURVE ( 'NONE', #67, #51, #16, .T. ) ;
#102 = DIRECTION ( 'NONE',  ( 0.0000000000000000000, 0.0000000000000000000, -1.000000000000000000 ) ) ;
#103 = CARTESIAN_POINT ( 'NONE',  ( 63.87174248578969600, 0.0000000000000000000, -3.345632254940011000E-014 ) ) ;
#104 = CARTESIAN_POINT ( 'NONE',  ( 62.68485377250010500, 0.0000000000000000000, 0.0000000000000000000 ) ) ;
#105 = DIRECTION ( 'NONE',  ( 0.0000000000000000000, 1.000000000000000000, 0.0000000000000000000 ) ) ;
#106 = FACE_OUTER_BOUND ( 'NONE', #71, .T. ) ;
#107 = ORIENTED_EDGE ( 'NONE', *, *, #161, .T. ) ;
#108 =( NAMED_UNIT ( * ) SI_UNIT ( $, .STERADIAN. ) SOLID_ANGLE_UNIT ( ) );
#109 = ADVANCED_FACE ( 'NONE', ( #162 ), #54, .T. ) ;
#110 = CARTESIAN_POINT ( 'NONE',  ( 60.93160501543320600, 0.0000000000000000000, 0.0000000000000000000 ) ) ;
#111 = CARTESIAN_POINT ( 'NONE',  ( 62.68485377250010500, 0.0000000000000000000, 0.0000000000000000000 ) ) ;
#112 = AXIS2_PLACEMENT_3D ( 'NONE', #84, #127, #129 ) ;
#113 = DIRECTION ( 'NONE',  ( 0.0000000000000000000, 0.0000000000000000000, 1.000000000000000000 ) ) ;
#114 = LINE ( 'NONE', #279, #22 ) ;
#115 = DIRECTION ( 'NONE',  ( 0.0000000000000000000, 0.0000000000000000000, 1.000000000000000000 ) ) ;
#116 = PRESENTATION_STYLE_ASSIGNMENT (( #235 ) ) ;
#117 = FILL_AREA_STYLE ('',( #334 ) ) ;
#118 = ORIENTED_EDGE ( 'NONE', *, *, #251, .T. ) ;
#119 = AXIS2_PLACEMENT_3D ( 'NONE', #43, #331, #8 ) ;
#120 = ORIENTED_EDGE ( 'NONE', *, *, #24, .F. ) ;
#121 = VECTOR ( 'NONE', #324, 1000.000000000000000 ) ;
#122 = MECHANICAL_DESIGN_GEOMETRIC_PRESENTATION_REPRESENTATION (  '', ( #100 ), #69 ) ;
#123 = DIRECTION ( 'NONE',  ( 0.0000000000000000000, 0.0000000000000000000, 1.000000000000000000 ) ) ;
#124 = DIRECTION ( 'NONE',  ( 0.0000000000000000000, 0.0000000000000000000, 1.000000000000000000 ) ) ;
#125 = VECTOR ( 'NONE', #77, 1000.000000000000000 ) ;
#126 = ORIENTED_EDGE ( 'NONE', *, *, #214, .F. ) ;
#127 = DIRECTION ( 'NONE',  ( 0.0000000000000000000, 1.000000000000000000, -0.0000000000000000000 ) ) ;
#128 = AXIS2_PLACEMENT_3D ( 'NONE', #266, #105, #10 ) ;
#129 = DIRECTION ( 'NONE',  ( 0.0000000000000000000, 0.0000000000000000000, 1.000000000000000000 ) ) ;
#130 = DIRECTION ( 'NONE',  ( -1.000000000000000000, -0.0000000000000000000, -0.0000000000000000000 ) ) ;
#131 = CIRCLE ( 'NONE', #112, 112.2099999999999900 ) ;
#132 = AXIS2_PLACEMENT_3D ( 'NONE', #216, #26, #254 ) ;
#133 = EDGE_CURVE ( 'NONE', #60, #341, #17, .T. ) ;
#134 = CARTESIAN_POINT ( 'NONE',  ( -0.5519199926577972300, 0.0000000000000000000, 12.70000000000002800 ) ) ;
#135 = FILL_AREA_STYLE ('',( #52 ) ) ;
#136 = MANIFOLD_SOLID_BREP ( 'Ðý×ª1', #291 ) ;
#137 = VERTEX_POINT ( 'NONE', #320 ) ;
#138 = ORIENTED_EDGE ( 'NONE', *, *, #338, .T. ) ;
#139 = AXIS2_PLACEMENT_3D ( 'NONE', #110, #1, #98 ) ;
#140 = DIRECTION ( 'NONE',  ( -0.0000000000000000000, 1.000000000000000000, 1.224646799147353200E-016 ) ) ;
#141 = DIRECTION ( 'NONE',  ( -0.0000000000000000000, 1.000000000000000000, 1.224646799147353200E-016 ) ) ;
#142 = ADVANCED_FACE ( 'NONE', ( #106 ), #50, .T. ) ;
#143 = PRESENTATION_LAYER_ASSIGNMENT (  '', '', ( #220 ) ) ;
#144 = DIRECTION ( 'NONE',  ( 0.0000000000000000000, 0.0000000000000000000, 1.000000000000000000 ) ) ;
#145 = SURFACE_STYLE_USAGE ( .BOTH. , #260 ) ;
#146 = EDGE_LOOP ( 'NONE', ( #19, #288, #297, #345 ) ) ;
#147 =( NAMED_UNIT ( * ) PLANE_ANGLE_UNIT ( ) SI_UNIT ( $, .RADIAN. ) );
#148 = DIRECTION ( 'NONE',  ( -1.000000000000000000, -0.0000000000000000000, -0.0000000000000000000 ) ) ;
#149 = CARTESIAN_POINT ( 'NONE',  ( 62.68485377250013400, 1.555301434917135500E-015, -12.70000000000001000 ) ) ;
#150 = DIRECTION ( 'NONE',  ( 0.0000000000000000000, 0.0000000000000000000, 1.000000000000000000 ) ) ;
#151 = LINE ( 'NONE', #263, #125 ) ;
#152 = ORIENTED_EDGE ( 'NONE', *, *, #101, .T. ) ;
#153 = PRESENTATION_LAYER_ASSIGNMENT (  '', '', ( #100 ) ) ;
#154 = ORIENTED_EDGE ( 'NONE', *, *, #64, .F. ) ;
#155 = EDGE_CURVE ( 'NONE', #51, #67, #237, .T. ) ;
#156 = UNCERTAINTY_MEASURE_WITH_UNIT (LENGTH_MEASURE( 1.000000000000000100E-005 ), #248, 'distance_accuracy_value', 'NONE');
#157 = SURFACE_SIDE_STYLE ('',( #274 ) ) ;
#158 = ORIENTED_EDGE ( 'NONE', *, *, #161, .F. ) ;
#159 =( GEOMETRIC_REPRESENTATION_CONTEXT ( 3 ) GLOBAL_UNCERTAINTY_ASSIGNED_CONTEXT ( ( #80 ) ) GLOBAL_UNIT_ASSIGNED_CONTEXT ( ( #304, #147, #108 ) ) REPRESENTATION_CONTEXT ( 'NONE', 'WORKASPACE' ) );
#160 = FACE_OUTER_BOUND ( 'NONE', #270, .T. ) ;
#161 = EDGE_CURVE ( 'NONE', #137, #51, #87, .T. ) ;
#162 = FACE_OUTER_BOUND ( 'NONE', #210, .T. ) ;
#163 = CARTESIAN_POINT ( 'NONE',  ( -0.5519199926577972300, 0.0000000000000000000, 0.0000000000000000000 ) ) ;
#164 = ORIENTED_EDGE ( 'NONE', *, *, #7, .T. ) ;
#165 = ADVANCED_FACE ( 'NONE', ( #285 ), #257, .T. ) ;
#166 =( LENGTH_UNIT ( ) NAMED_UNIT ( * ) SI_UNIT ( .MILLI., .METRE. ) );
#167 = CARTESIAN_POINT ( 'NONE',  ( 111.8517424857896600, 0.0000000000000000000, 2.543028116047646400E-014 ) ) ;
#168 = CIRCLE ( 'NONE', #14, 12.70000000000002800 ) ;
#169 = CARTESIAN_POINT ( 'NONE',  ( -0.5519199926577972300, 1.555301434917142000E-015, -12.70000000000002800 ) ) ;
#170 = DIRECTION ( 'NONE',  ( 0.0000000000000000000, 0.0000000000000000000, -1.000000000000000000 ) ) ;
#171 =( LENGTH_UNIT ( ) NAMED_UNIT ( * ) SI_UNIT ( .MILLI., .METRE. ) );
#172 = ORIENTED_EDGE ( 'NONE', *, *, #311, .T. ) ;
#173 = DIRECTION ( 'NONE',  ( -1.000000000000000000, -0.0000000000000000000, -0.0000000000000000000 ) ) ;
#174 =( GEOMETRIC_REPRESENTATION_CONTEXT ( 3 ) GLOBAL_UNCERTAINTY_ASSIGNED_CONTEXT ( ( #37 ) ) GLOBAL_UNIT_ASSIGNED_CONTEXT ( ( #171, #211, #234 ) ) REPRESENTATION_CONTEXT ( 'NONE', 'WORKASPACE' ) );
#175 = DIRECTION ( 'NONE',  ( -1.000000000000000000, -0.0000000000000000000, -0.0000000000000000000 ) ) ;
#176 = ORIENTED_EDGE ( 'NONE', *, *, #53, .F. ) ;
#177 = SHAPE_DEFINITION_REPRESENTATION ( #184, #181 ) ;
#178 = AXIS2_PLACEMENT_3D ( 'NONE', #307, #267, #150 ) ;
#179 = CARTESIAN_POINT ( 'NONE',  ( 60.93160501543320600, 0.0000000000000000000, 0.0000000000000000000 ) ) ;
#180 = FACE_OUTER_BOUND ( 'NONE', #275, .T. ) ;
#181 = ADVANCED_BREP_SHAPE_REPRESENTATION ( '145170', ( #136, #226, #300 ), #159 ) ;
#182 = AXIS2_PLACEMENT_3D ( 'NONE', #56, #245, #284 ) ;
#183 = ORIENTED_EDGE ( 'NONE', *, *, #133, .T. ) ;
#184 = PRODUCT_DEFINITION_SHAPE ( 'NONE', 'NONE',  #241 ) ;
#185 = EDGE_CURVE ( 'NONE', #315, #258, #246, .T. ) ;
#186 = DIRECTION ( 'NONE',  ( 0.0000000000000000000, 0.0000000000000000000, 1.000000000000000000 ) ) ;
#187 =( NAMED_UNIT ( * ) SI_UNIT ( $, .STERADIAN. ) SOLID_ANGLE_UNIT ( ) );
#188 = DIRECTION ( 'NONE',  ( 0.0000000000000000000, 0.0000000000000000000, 1.000000000000000000 ) ) ;
#189 = ORIENTED_EDGE ( 'NONE', *, *, #202, .T. ) ;
#190 = PRESENTATION_LAYER_ASSIGNMENT (  '', '', ( #200 ) ) ;
#191 = AXIS2_PLACEMENT_3D ( 'NONE', #225, #303, #186 ) ;
#192 = ORIENTED_EDGE ( 'NONE', *, *, #133, .F. ) ;
#193 = PRESENTATION_STYLE_ASSIGNMENT (( #145 ) ) ;
#194 = CIRCLE ( 'NONE', #72, 12.69999999999999800 ) ;
#195 = ORIENTED_EDGE ( 'NONE', *, *, #323, .T. ) ;
#196 = DIRECTION ( 'NONE',  ( 0.0000000000000000000, 1.000000000000000000, 0.0000000000000000000 ) ) ;
#197 = COLOUR_RGB ( '',1.000000000000000000, 1.000000000000000000, 1.000000000000000000 ) ;
#198 = DIRECTION ( 'NONE',  ( 0.0000000000000000000, 1.000000000000000000, 0.0000000000000000000 ) ) ;
#199 = ORIENTED_EDGE ( 'NONE', *, *, #7, .F. ) ;
#200 = STYLED_ITEM ( 'NONE', ( #309 ), #181 ) ;
#201 = DIRECTION ( 'NONE',  ( -1.000000000000000000, -0.0000000000000000000, -0.0000000000000000000 ) ) ;
#202 = EDGE_CURVE ( 'NONE', #206, #76, #335, .T. ) ;
#203 = DIRECTION ( 'NONE',  ( -1.000000000000000000, -0.0000000000000000000, -0.0000000000000000000 ) ) ;
#204 = APPLICATION_PROTOCOL_DEFINITION ( 'draft international standard', 'automotive_design', 1998, #230 ) ;
#205 =( NAMED_UNIT ( * ) PLANE_ANGLE_UNIT ( ) SI_UNIT ( $, .RADIAN. ) );
#206 = VERTEX_POINT ( 'NONE', #249 ) ;
#207 = ORIENTED_EDGE ( 'NONE', *, *, #228, .F. ) ;
#208 = MECHANICAL_DESIGN_GEOMETRIC_PRESENTATION_REPRESENTATION (  '', ( #220 ), #316 ) ;
#209 = CARTESIAN_POINT ( 'NONE',  ( 62.68485377250013400, 0.0000000000000000000, 12.69999999999997100 ) ) ;
#210 = EDGE_LOOP ( 'NONE', ( #305, #172, #65 ) ) ;
#211 =( NAMED_UNIT ( * ) PLANE_ANGLE_UNIT ( ) SI_UNIT ( $, .RADIAN. ) );
#212 = ORIENTED_EDGE ( 'NONE', *, *, #89, .F. ) ;
#213 = APPLICATION_CONTEXT ( 'automotive_design' ) ;
#214 = EDGE_CURVE ( 'NONE', #341, #258, #151, .T. ) ;
#215 = DIRECTION ( 'NONE',  ( -0.0000000000000000000, -1.000000000000000000, -0.0000000000000000000 ) ) ;
#216 = CARTESIAN_POINT ( 'NONE',  ( -0.8160621761658039000, 0.0000000000000000000, 0.0000000000000000000 ) ) ;
#217 = ORIENTED_EDGE ( 'NONE', *, *, #338, .F. ) ;
#218 = MECHANICAL_DESIGN_GEOMETRIC_PRESENTATION_REPRESENTATION (  '', ( #200 ), #174 ) ;
#219 = FACE_OUTER_BOUND ( 'NONE', #2, .T. ) ;
#220 = STYLED_ITEM ( 'NONE', ( #116 ), #136 ) ;
#221 = DIRECTION ( 'NONE',  ( -1.000000000000000000, -0.0000000000000000000, -0.0000000000000000000 ) ) ;
#222 = FACE_OUTER_BOUND ( 'NONE', #146, .T. ) ;
#223 = CARTESIAN_POINT ( 'NONE',  ( 67.09275603421232900, 0.0000000000000000000, -12.70000000000004200 ) ) ;
#224 = ORIENTED_EDGE ( 'NONE', *, *, #74, .T. ) ;
#225 = CARTESIAN_POINT ( 'NONE',  ( 62.68485377250013400, 0.0000000000000000000, 0.0000000000000000000 ) ) ;
#226 = MANIFOLD_SOLID_BREP ( 'Ðý×ª2', #281 ) ;
#227 = AXIS2_PLACEMENT_3D ( 'NONE', #240, #286, #81 ) ;
#228 = EDGE_CURVE ( 'NONE', #341, #88, #194, .T. ) ;
#229 = DIRECTION ( 'NONE',  ( -1.000000000000000000, -0.0000000000000000000, -0.0000000000000000000 ) ) ;
#230 = APPLICATION_CONTEXT ( 'automotive_design' ) ;
#231 = CIRCLE ( 'NONE', #93, 12.70000000000002800 ) ;
#232 = DIRECTION ( 'NONE',  ( 0.0000000000000000000, 0.0000000000000000000, 1.000000000000000000 ) ) ;
#233 = PRODUCT_DEFINITION_FORMATION_WITH_SPECIFIED_SOURCE ( 'ÈÎºÎ', '', #308, .NOT_KNOWN. ) ;
#234 =( NAMED_UNIT ( * ) SI_UNIT ( $, .STERADIAN. ) SOLID_ANGLE_UNIT ( ) );
#235 = SURFACE_STYLE_USAGE ( .BOTH. , #157 ) ;
#236 = CARTESIAN_POINT ( 'NONE',  ( 178.5817424857896800, 0.0000000000000000000, 0.0000000000000000000 ) ) ;
#237 = CIRCLE ( 'NONE', #191, 12.70000000000002800 ) ;
#238 = ORIENTED_EDGE ( 'NONE', *, *, #333, .T. ) ;
#239 = FACE_OUTER_BOUND ( 'NONE', #58, .T. ) ;
#240 = CARTESIAN_POINT ( 'NONE',  ( -4.668257514210329100, 0.0000000000000000000, -3.765318713007809200E-014 ) ) ;
#241 = PRODUCT_DEFINITION ( 'Î´Öª', '', #233, #96 ) ;
#242 = CIRCLE ( 'NONE', #227, 68.54000000000002000 ) ;
#243 = ADVANCED_FACE ( 'NONE', ( #268 ), #326, .T. ) ;
#244 = CARTESIAN_POINT ( 'NONE',  ( 111.8517424857896600, 0.0000000000000000000, 2.543028116047646400E-014 ) ) ;
#245 = DIRECTION ( 'NONE',  ( 0.0000000000000000000, -1.000000000000000000, 0.0000000000000000000 ) ) ;
#246 = CIRCLE ( 'NONE', #302, 12.69999999999999800 ) ;
#247 = ORIENTED_EDGE ( 'NONE', *, *, #251, .F. ) ;
#248 =( LENGTH_UNIT ( ) NAMED_UNIT ( * ) SI_UNIT ( .MILLI., .METRE. ) );
#249 = CARTESIAN_POINT ( 'NONE',  ( 67.09275603421232900, -1.555301434917143800E-015, 12.70000000000004200 ) ) ;
#250 = CYLINDRICAL_SURFACE ( 'NONE', #119, 12.70000000000002800 ) ;
#251 = EDGE_CURVE ( 'NONE', #6, #76, #131, .T. ) ;
#252 = ORIENTED_EDGE ( 'NONE', *, *, #155, .F. ) ;
#253 = EDGE_LOOP ( 'NONE', ( #199, #295, #38, #27 ) ) ;
#254 = DIRECTION ( 'NONE',  ( 0.0000000000000000000, 0.0000000000000000000, 1.000000000000000000 ) ) ;
#255 = VECTOR ( 'NONE', #201, 1000.000000000000000 ) ;
#256 = SURFACE_STYLE_FILL_AREA ( #135 ) ;
#257 = CYLINDRICAL_SURFACE ( 'NONE', #132, 12.69999999999999800 ) ;
#258 = VERTEX_POINT ( 'NONE', #322 ) ;
#259 = DIRECTION ( 'NONE',  ( 0.0000000000000000000, 0.0000000000000000000, -1.000000000000000000 ) ) ;
#260 = SURFACE_SIDE_STYLE ('',( #269 ) ) ;
#261 = CARTESIAN_POINT ( 'NONE',  ( 59.37174248578966700, 0.0000000000000000000, 2.221680795951381200E-014 ) ) ;
#262 = AXIS2_PLACEMENT_3D ( 'NONE', #321, #57, #115 ) ;
#263 = CARTESIAN_POINT ( 'NONE',  ( -0.8160621761658039000, 0.0000000000000000000, 12.69999999999999800 ) ) ;
#264 = DIRECTION ( 'NONE',  ( 0.0000000000000000000, -1.000000000000000000, -1.224646799147353200E-016 ) ) ;
#265 = DIRECTION ( 'NONE',  ( 0.0000000000000000000, 0.0000000000000000000, -1.000000000000000000 ) ) ;
#266 = CARTESIAN_POINT ( 'NONE',  ( -4.668257514210329100, 0.0000000000000000000, -3.765318713007809200E-014 ) ) ;
#267 = DIRECTION ( 'NONE',  ( -1.000000000000000000, -0.0000000000000000000, -0.0000000000000000000 ) ) ;
#268 = FACE_OUTER_BOUND ( 'NONE', #327, .T. ) ;
#269 = SURFACE_STYLE_FILL_AREA ( #75 ) ;
#270 = EDGE_LOOP ( 'NONE', ( #154, #189, #247 ) ) ;
#271 = AXIS2_PLACEMENT_3D ( 'NONE', #277, #62, #123 ) ;
#272 = LINE ( 'NONE', #169, #121 ) ;
#273 = DIRECTION ( 'NONE',  ( 0.0000000000000000000, -1.000000000000000000, -1.224646799147353200E-016 ) ) ;
#274 = SURFACE_STYLE_FILL_AREA ( #117 ) ;
#275 = EDGE_LOOP ( 'NONE', ( #339, #176, #118 ) ) ;
#276 = DIRECTION ( 'NONE',  ( 0.0000000000000000000, 1.224646799147353200E-016, -1.000000000000000000 ) ) ;
#277 = CARTESIAN_POINT ( 'NONE',  ( 111.8517424857896600, 0.0000000000000000000, 2.543028116047646400E-014 ) ) ;
#278 = DIRECTION ( 'NONE',  ( 0.0000000000000000000, 1.224646799147353200E-016, -1.000000000000000000 ) ) ;
#279 = CARTESIAN_POINT ( 'NONE',  ( -0.8160621761658039000, 1.555301434917138200E-015, -12.69999999999999800 ) ) ;
#280 = AXIS2_PLACEMENT_3D ( 'NONE', #328, #273, #276 ) ;
#281 = CLOSED_SHELL ( 'NONE', ( #318, #299, #18, #97, #283, #21 ) ) ;
#282 = SPHERICAL_SURFACE ( 'NONE', #128, 68.54000000000002000 ) ;
#283 = ADVANCED_FACE ( 'NONE', ( #180 ), #296, .F. ) ;
#284 = DIRECTION ( 'NONE',  ( 0.0000000000000000000, 0.0000000000000000000, -1.000000000000000000 ) ) ;
#285 = FACE_OUTER_BOUND ( 'NONE', #253, .T. ) ;
#286 = DIRECTION ( 'NONE',  ( 0.0000000000000000000, -1.000000000000000000, 0.0000000000000000000 ) ) ;
#287 = ADVANCED_FACE ( 'NONE', ( #239 ), #79, .T. ) ;
#288 = ORIENTED_EDGE ( 'NONE', *, *, #337, .T. ) ;
#289 = SPHERICAL_SURFACE ( 'NONE', #61, 112.2099999999999900 ) ;
#290 = CARTESIAN_POINT ( 'NONE',  ( 111.8517424857896600, 0.0000000000000000000, 2.543028116047646400E-014 ) ) ;
#291 = CLOSED_SHELL ( 'NONE', ( #243, #142, #109, #287, #165, #313 ) ) ;
#292 = ORIENTED_EDGE ( 'NONE', *, *, #337, .F. ) ;
#293 = CARTESIAN_POINT ( 'NONE',  ( 67.09275603421232900, 0.0000000000000000000, 0.0000000000000000000 ) ) ;
#294 = SURFACE_SIDE_STYLE ('',( #256 ) ) ;
#295 = ORIENTED_EDGE ( 'NONE', *, *, #24, .T. ) ;
#296 = SPHERICAL_SURFACE ( 'NONE', #63, 112.2099999999999900 ) ;
#297 = ORIENTED_EDGE ( 'NONE', *, *, #101, .F. ) ;
#298 = AXIS2_PLACEMENT_3D ( 'NONE', #91, #198, #94 ) ;
#299 = ADVANCED_FACE ( 'NONE', ( #160 ), #289, .F. ) ;
#300 = AXIS2_PLACEMENT_3D ( 'NONE', #329, #344, #86 ) ;
#301 = CIRCLE ( 'NONE', #271, 52.47999999999999000 ) ;
#302 = AXIS2_PLACEMENT_3D ( 'NONE', #179, #130, #232 ) ;
#303 = DIRECTION ( 'NONE',  ( -1.000000000000000000, -0.0000000000000000000, -0.0000000000000000000 ) ) ;
#304 =( LENGTH_UNIT ( ) NAMED_UNIT ( * ) SI_UNIT ( .MILLI., .METRE. ) );
#305 = ORIENTED_EDGE ( 'NONE', *, *, #185, .T. ) ;
#306 = DIRECTION ( 'NONE',  ( -1.000000000000000000, -0.0000000000000000000, -0.0000000000000000000 ) ) ;
#307 = CARTESIAN_POINT ( 'NONE',  ( 62.68485377250013400, 0.0000000000000000000, 0.0000000000000000000 ) ) ;
#308 = PRODUCT ( '145170', '145170', '', ( #343 ) ) ;
#309 = PRESENTATION_STYLE_ASSIGNMENT (( #347 ) ) ;
#310 = AXIS2_PLACEMENT_3D ( 'NONE', #163, #306, #188 ) ;
#311 = EDGE_CURVE ( 'NONE', #258, #12, #90, .T. ) ;
#312 = CIRCLE ( 'NONE', #82, 12.69999999999999800 ) ;
#313 = ADVANCED_FACE ( 'NONE', ( #66 ), #282, .T. ) ;
#314 = CARTESIAN_POINT ( 'NONE',  ( -4.668257514210329100, 0.0000000000000000000, -3.765318713007809200E-014 ) ) ;
#315 = VERTEX_POINT ( 'NONE', #33 ) ;
#316 =( GEOMETRIC_REPRESENTATION_CONTEXT ( 3 ) GLOBAL_UNCERTAINTY_ASSIGNED_CONTEXT ( ( #156 ) ) GLOBAL_UNIT_ASSIGNED_CONTEXT ( ( #248, #205, #70 ) ) REPRESENTATION_CONTEXT ( 'NONE', 'WORKASPACE' ) );
#317 = DIRECTION ( 'NONE',  ( 0.0000000000000000000, 0.0000000000000000000, 1.000000000000000000 ) ) ;
#318 = ADVANCED_FACE ( 'NONE', ( #222 ), #250, .T. ) ;
#319 = SPHERICAL_SURFACE ( 'NONE', #298, 68.54000000000002000 ) ;
#320 = CARTESIAN_POINT ( 'NONE',  ( 63.87174248578969600, 0.0000000000000000000, -3.345632254940011000E-014 ) ) ;
#321 = CARTESIAN_POINT ( 'NONE',  ( -4.668257514210329100, 0.0000000000000000000, -3.765318713007809200E-014 ) ) ;
#322 = CARTESIAN_POINT ( 'NONE',  ( 60.93160501543321300, -1.555301434917135100E-015, 12.69999999999999800 ) ) ;
#323 = EDGE_CURVE ( 'NONE', #258, #315, #28, .T. ) ;
#324 = DIRECTION ( 'NONE',  ( -1.000000000000000000, -0.0000000000000000000, -0.0000000000000000000 ) ) ;
#325 = APPLICATION_PROTOCOL_DEFINITION ( 'draft international standard', 'automotive_design', 1998, #213 ) ;
#326 = SPHERICAL_SURFACE ( 'NONE', #262, 68.54000000000002000 ) ;
#327 = EDGE_LOOP ( 'NONE', ( #192, #138, #207 ) ) ;
#328 = CARTESIAN_POINT ( 'NONE',  ( 178.5817424857896800, 0.0000000000000000000, 0.0000000000000000000 ) ) ;
#329 = CARTESIAN_POINT ( 'NONE',  ( 0.0000000000000000000, 0.0000000000000000000, 0.0000000000000000000 ) ) ;
#330 = DIRECTION ( 'NONE',  ( -0.0000000000000000000, -1.000000000000000000, -0.0000000000000000000 ) ) ;
#331 = DIRECTION ( 'NONE',  ( -1.000000000000000000, -0.0000000000000000000, -0.0000000000000000000 ) ) ;
#332 = LINE ( 'NONE', #134, #255 ) ;
#333 = EDGE_CURVE ( 'NONE', #206, #67, #332, .T. ) ;
#334 = FILL_AREA_STYLE_COLOUR ( '', #45 ) ;
#335 = CIRCLE ( 'NONE', #280, 112.2099999999999900 ) ;
#336 = ORIENTED_EDGE ( 'NONE', *, *, #311, .F. ) ;
#337 = EDGE_CURVE ( 'NONE', #6, #51, #272, .T. ) ;
#338 = EDGE_CURVE ( 'NONE', #60, #88, #13, .T. ) ;
#339 = ORIENTED_EDGE ( 'NONE', *, *, #202, .F. ) ;
#340 = DIRECTION ( 'NONE',  ( 0.0000000000000000000, -1.224646799147353200E-016, 1.000000000000000000 ) ) ;
#341 = VERTEX_POINT ( 'NONE', #55 ) ;
#342 = AXIS2_PLACEMENT_3D ( 'NONE', #167, #330, #102 ) ;
#343 = PRODUCT_CONTEXT ( 'NONE', #213, 'mechanical' ) ;
#344 = DIRECTION ( 'NONE',  ( 0.0000000000000000000, 0.0000000000000000000, 1.000000000000000000 ) ) ;
#345 = ORIENTED_EDGE ( 'NONE', *, *, #333, .F. ) ;
#346 = ORIENTED_EDGE ( 'NONE', *, *, #155, .T. ) ;
#347 = SURFACE_STYLE_USAGE ( .BOTH. , #294 ) ;
ENDSEC;
END-ISO-10303-21;
