ISO-10303-21;
HEADER;
FILE_DESCRIPTION (( 'STEP AP214' ),
    '1' );
FILE_NAME ('145184.STEP',
    '2019-06-13T02:18:48',
    ( 'user' ),
    ( 'Î¢ÈíÖÐ¹ú' ),
    'SwSTEP 2.0',
    'SolidWorks 2016',
    '' );
FILE_SCHEMA (( 'AUTOMOTIVE_DESIGN' ));
ENDSEC;

DATA;
#1 = ORIENTED_EDGE ( 'NONE', *, *, #278, .T. ) ;
#2 = ORIENTED_EDGE ( 'NONE', *, *, #59, .T. ) ;
#3 = CARTESIAN_POINT ( 'NONE',  ( 358.4679002687381100, 0.0000000000000000000, 0.0000000000000000000 ) ) ;
#4 = EDGE_CURVE ( 'NONE', #258, #8, #136, .T. ) ;
#5 = COLOUR_RGB ( '',1.000000000000000000, 1.000000000000000000, 1.000000000000000000 ) ;
#6 =( NAMED_UNIT ( * ) PLANE_ANGLE_UNIT ( ) SI_UNIT ( $, .RADIAN. ) );
#7 = DIRECTION ( 'NONE',  ( 0.0000000000000000000, 0.0000000000000000000, -1.000000000000000000 ) ) ;
#8 = VERTEX_POINT ( 'NONE', #276 ) ;
#9 = DIRECTION ( 'NONE',  ( -1.000000000000000000, -0.0000000000000000000, -0.0000000000000000000 ) ) ;
#10 =( NAMED_UNIT ( * ) PLANE_ANGLE_UNIT ( ) SI_UNIT ( $, .RADIAN. ) );
#11 = SPHERICAL_SURFACE ( 'NONE', #116, 86.10000000000000900 ) ;
#12 = ORIENTED_EDGE ( 'NONE', *, *, #214, .T. ) ;
#13 = EDGE_CURVE ( 'NONE', #222, #258, #22, .T. ) ;
#14 = FACE_OUTER_BOUND ( 'NONE', #257, .T. ) ;
#15 = CARTESIAN_POINT ( 'NONE',  ( 184.5397411790878300, -3.110602869834277300E-015, 25.40000000000003400 ) ) ;
#16 = VERTEX_POINT ( 'NONE', #144 ) ;
#17 = ADVANCED_FACE ( 'NONE', ( #93 ), #82, .F. ) ;
#18 = AXIS2_PLACEMENT_3D ( 'NONE', #62, #324, #254 ) ;
#19 = FACE_OUTER_BOUND ( 'NONE', #63, .T. ) ;
#20 = DIRECTION ( 'NONE',  ( 0.0000000000000000000, 1.000000000000000000, 0.0000000000000000000 ) ) ;
#21 = DIRECTION ( 'NONE',  ( -1.000000000000000000, -0.0000000000000000000, -0.0000000000000000000 ) ) ;
#22 = LINE ( 'NONE', #92, #271 ) ;
#23 = CIRCLE ( 'NONE', #18, 103.2000000000000200 ) ;
#24 = LINE ( 'NONE', #320, #60 ) ;
#25 = ORIENTED_EDGE ( 'NONE', *, *, #4, .F. ) ;
#26 = ORIENTED_EDGE ( 'NONE', *, *, #211, .F. ) ;
#27 = DIRECTION ( 'NONE',  ( -1.000000000000000000, -0.0000000000000000000, -0.0000000000000000000 ) ) ;
#28 = DIRECTION ( 'NONE',  ( 0.0000000000000000000, 0.0000000000000000000, -1.000000000000000000 ) ) ;
#29 = CARTESIAN_POINT ( 'NONE',  ( 86.30790026873805200, 0.0000000000000000000, 2.916250489981909800E-014 ) ) ;
#30 = CIRCLE ( 'NONE', #134, 25.39999999999998800 ) ;
#31 = ORIENTED_EDGE ( 'NONE', *, *, #277, .F. ) ;
#32 = CARTESIAN_POINT ( 'NONE',  ( 194.4631393622327100, 0.0000000000000000000, 0.0000000000000000000 ) ) ;
#33 = VERTEX_POINT ( 'NONE', #325 ) ;
#34 =( NAMED_UNIT ( * ) SI_UNIT ( $, .STERADIAN. ) SOLID_ANGLE_UNIT ( ) );
#35 = AXIS2_PLACEMENT_3D ( 'NONE', #142, #228, #71 ) ;
#36 = CARTESIAN_POINT ( 'NONE',  ( -0.8160621761658039000, 0.0000000000000000000, 25.40000000000002700 ) ) ;
#37 = SHAPE_DEFINITION_REPRESENTATION ( #163, #266 ) ;
#38 = ORIENTED_EDGE ( 'NONE', *, *, #214, .F. ) ;
#39 = DIRECTION ( 'NONE',  ( 0.0000000000000000000, 0.0000000000000000000, 1.000000000000000000 ) ) ;
#40 = AXIS2_PLACEMENT_3D ( 'NONE', #341, #192, #150 ) ;
#41 = AXIS2_PLACEMENT_3D ( 'NONE', #86, #244, #218 ) ;
#42 = ORIENTED_EDGE ( 'NONE', *, *, #281, .F. ) ;
#43 = ORIENTED_EDGE ( 'NONE', *, *, #344, .T. ) ;
#44 = SPHERICAL_SURFACE ( 'NONE', #240, 103.2000000000000000 ) ;
#45 = PRODUCT_CONTEXT ( 'NONE', #100, 'mechanical' ) ;
#46 = CIRCLE ( 'NONE', #141, 165.9600000000000100 ) ;
#47 = FACE_OUTER_BOUND ( 'NONE', #203, .T. ) ;
#48 = SPHERICAL_SURFACE ( 'NONE', #169, 86.10000000000000900 ) ;
#49 = FACE_OUTER_BOUND ( 'NONE', #112, .T. ) ;
#50 = ORIENTED_EDGE ( 'NONE', *, *, #307, .F. ) ;
#51 = ADVANCED_FACE ( 'NONE', ( #103 ), #48, .T. ) ;
#52 = EDGE_LOOP ( 'NONE', ( #168, #205, #104 ) ) ;
#53 = ADVANCED_FACE ( 'NONE', ( #47 ), #345, .F. ) ;
#54 = DIRECTION ( 'NONE',  ( 0.0000000000000000000, 1.000000000000000000, 0.0000000000000000000 ) ) ;
#55 = SURFACE_STYLE_USAGE ( .BOTH. , #193 ) ;
#56 = LINE ( 'NONE', #36, #311 ) ;
#57 = DIRECTION ( 'NONE',  ( 0.0000000000000000000, 1.224646799147353200E-016, -1.000000000000000000 ) ) ;
#58 = PRESENTATION_STYLE_ASSIGNMENT (( #133 ) ) ;
#59 = EDGE_CURVE ( 'NONE', #343, #139, #23, .T. ) ;
#60 = VECTOR ( 'NONE', #9, 1000.000000000000000 ) ;
#61 =( NAMED_UNIT ( * ) PLANE_ANGLE_UNIT ( ) SI_UNIT ( $, .RADIAN. ) );
#62 = CARTESIAN_POINT ( 'NONE',  ( 86.30790026873805200, 0.0000000000000000000, 2.916250489981909800E-014 ) ) ;
#63 = EDGE_LOOP ( 'NONE', ( #89, #84, #336 ) ) ;
#64 = DIRECTION ( 'NONE',  ( 0.0000000000000000000, 0.0000000000000000000, 1.000000000000000000 ) ) ;
#65 = CARTESIAN_POINT ( 'NONE',  ( -0.5519199926577972300, 0.0000000000000000000, 0.0000000000000000000 ) ) ;
#66 =( NAMED_UNIT ( * ) PLANE_ANGLE_UNIT ( ) SI_UNIT ( $, .RADIAN. ) );
#67 = PRESENTATION_LAYER_ASSIGNMENT (  '', '', ( #194 ) ) ;
#68 = DIRECTION ( 'NONE',  ( 0.0000000000000000000, -1.000000000000000000, -1.224646799147353200E-016 ) ) ;
#69 = DIRECTION ( 'NONE',  ( -1.000000000000000000, -0.0000000000000000000, -0.0000000000000000000 ) ) ;
#70 = ORIENTED_EDGE ( 'NONE', *, *, #312, .T. ) ;
#71 = DIRECTION ( 'NONE',  ( 0.0000000000000000000, 0.0000000000000000000, 1.000000000000000000 ) ) ;
#72 = CARTESIAN_POINT ( 'NONE',  ( 189.5079002687380700, 0.0000000000000000000, 2.284332741621875400E-014 ) ) ;
#73 = MANIFOLD_SOLID_BREP ( 'Ðý×ª2', #157 ) ;
#74 = ORIENTED_EDGE ( 'NONE', *, *, #212, .T. ) ;
#75 = MECHANICAL_DESIGN_GEOMETRIC_PRESENTATION_REPRESENTATION (  '', ( #269 ), #251 ) ;
#76 = EDGE_LOOP ( 'NONE', ( #329, #198, #210, #242 ) ) ;
#77 = DIRECTION ( 'NONE',  ( 0.0000000000000000000, 0.0000000000000000000, 1.000000000000000000 ) ) ;
#78 = FACE_OUTER_BOUND ( 'NONE', #158, .T. ) ;
#79 = APPLICATION_PROTOCOL_DEFINITION ( 'draft international standard', 'automotive_design', 1998, #100 ) ;
#80 = ADVANCED_FACE ( 'NONE', ( #216 ), #315, .T. ) ;
#81 = VERTEX_POINT ( 'NONE', #317 ) ;
#82 = SPHERICAL_SURFACE ( 'NONE', #319, 165.9600000000000100 ) ;
#83 = AXIS2_PLACEMENT_3D ( 'NONE', #274, #21, #156 ) ;
#84 = ORIENTED_EDGE ( 'NONE', *, *, #265, .T. ) ;
#85 = MANIFOLD_SOLID_BREP ( 'Ðý×ª1', #234 ) ;
#86 = CARTESIAN_POINT ( 'NONE',  ( 358.4679002687381100, 0.0000000000000000000, 0.0000000000000000000 ) ) ;
#87 = DIRECTION ( 'NONE',  ( 0.0000000000000000000, 0.0000000000000000000, 1.000000000000000000 ) ) ;
#88 = DIRECTION ( 'NONE',  ( -1.000000000000000000, -0.0000000000000000000, -0.0000000000000000000 ) ) ;
#89 = ORIENTED_EDGE ( 'NONE', *, *, #267, .F. ) ;
#90 = ORIENTED_EDGE ( 'NONE', *, *, #225, .F. ) ;
#91 = AXIS2_PLACEMENT_3D ( 'NONE', #248, #117, #64 ) ;
#92 = CARTESIAN_POINT ( 'NONE',  ( -0.8160621761658039000, 3.110602869834280400E-015, -25.40000000000002700 ) ) ;
#93 = FACE_OUTER_BOUND ( 'NONE', #108, .T. ) ;
#94 = SURFACE_SIDE_STYLE ('',( #186 ) ) ;
#95 = AXIS2_PLACEMENT_3D ( 'NONE', #29, #162, #322 ) ;
#96 = SURFACE_SIDE_STYLE ('',( #125 ) ) ;
#97 = ORIENTED_EDGE ( 'NONE', *, *, #164, .F. ) ;
#98 = AXIS2_PLACEMENT_3D ( 'NONE', #239, #335, #77 ) ;
#99 = ADVANCED_FACE ( 'NONE', ( #332 ), #286, .T. ) ;
#100 = APPLICATION_CONTEXT ( 'automotive_design' ) ;
#101 = AXIS2_PLACEMENT_3D ( 'NONE', #190, #173, #39 ) ;
#102 = FACE_OUTER_BOUND ( 'NONE', #223, .T. ) ;
#103 = FACE_OUTER_BOUND ( 'NONE', #174, .T. ) ;
#104 = ORIENTED_EDGE ( 'NONE', *, *, #272, .F. ) ;
#105 = UNCERTAINTY_MEASURE_WITH_UNIT (LENGTH_MEASURE( 1.000000000000000100E-005 ), #122, 'distance_accuracy_value', 'NONE');
#106 = FILL_AREA_STYLE_COLOUR ( '', #152 ) ;
#107 = AXIS2_PLACEMENT_3D ( 'NONE', #137, #253, #256 ) ;
#108 = EDGE_LOOP ( 'NONE', ( #97, #113, #127 ) ) ;
#109 = VERTEX_POINT ( 'NONE', #231 ) ;
#110 = DIRECTION ( 'NONE',  ( 0.0000000000000000000, 0.0000000000000000000, 1.000000000000000000 ) ) ;
#111 = CYLINDRICAL_SURFACE ( 'NONE', #246, 25.40000000000002700 ) ;
#112 = EDGE_LOOP ( 'NONE', ( #303, #140, #334 ) ) ;
#113 = ORIENTED_EDGE ( 'NONE', *, *, #225, .T. ) ;
#114 = DIRECTION ( 'NONE',  ( 0.0000000000000000000, 0.0000000000000000000, 1.000000000000000000 ) ) ;
#115 = PRODUCT_DEFINITION ( 'Î´Öª', '', #184, #330 ) ;
#116 = AXIS2_PLACEMENT_3D ( 'NONE', #346, #238, #143 ) ;
#117 = DIRECTION ( 'NONE',  ( -1.000000000000000000, -0.0000000000000000000, -0.0000000000000000000 ) ) ;
#118 = CIRCLE ( 'NONE', #185, 25.39999999999999100 ) ;
#119 = FILL_AREA_STYLE_COLOUR ( '', #121 ) ;
#120 = CARTESIAN_POINT ( 'NONE',  ( 86.30790026873805200, 0.0000000000000000000, 2.916250489981909800E-014 ) ) ;
#121 = COLOUR_RGB ( '',1.000000000000000000, 1.000000000000000000, 1.000000000000000000 ) ;
#122 =( LENGTH_UNIT ( ) NAMED_UNIT ( * ) SI_UNIT ( .MILLI., .METRE. ) );
#123 = FACE_OUTER_BOUND ( 'NONE', #268, .T. ) ;
#124 = AXIS2_PLACEMENT_3D ( 'NONE', #291, #27, #224 ) ;
#125 = SURFACE_STYLE_FILL_AREA ( #215 ) ;
#126 = AXIS2_PLACEMENT_3D ( 'NONE', #138, #88, #114 ) ;
#127 = ORIENTED_EDGE ( 'NONE', *, *, #344, .F. ) ;
#128 = CIRCLE ( 'NONE', #299, 103.2000000000000200 ) ;
#129 = APPLICATION_CONTEXT ( 'automotive_design' ) ;
#130 = ORIENTED_EDGE ( 'NONE', *, *, #212, .F. ) ;
#131 =( LENGTH_UNIT ( ) NAMED_UNIT ( * ) SI_UNIT ( .MILLI., .METRE. ) );
#132 = CARTESIAN_POINT ( 'NONE',  ( 86.30790026873805200, 0.0000000000000000000, 2.916250489981909800E-014 ) ) ;
#133 = SURFACE_STYLE_USAGE ( .BOTH. , #94 ) ;
#134 = AXIS2_PLACEMENT_3D ( 'NONE', #308, #202, #338 ) ;
#135 = CYLINDRICAL_SURFACE ( 'NONE', #204, 25.39999999999999100 ) ;
#136 = CIRCLE ( 'NONE', #35, 86.10000000000000900 ) ;
#137 = CARTESIAN_POINT ( 'NONE',  ( 194.4631393622327100, 0.0000000000000000000, 0.0000000000000000000 ) ) ;
#138 = CARTESIAN_POINT ( 'NONE',  ( 186.3332970437571400, 0.0000000000000000000, 0.0000000000000000000 ) ) ;
#139 = VERTEX_POINT ( 'NONE', #207 ) ;
#140 = ORIENTED_EDGE ( 'NONE', *, *, #281, .T. ) ;
#141 = AXIS2_PLACEMENT_3D ( 'NONE', #263, #292, #230 ) ;
#142 = CARTESIAN_POINT ( 'NONE',  ( 266.8079002687380800, 0.0000000000000000000, 2.916250489981908500E-014 ) ) ;
#143 = DIRECTION ( 'NONE',  ( 0.0000000000000000000, 0.0000000000000000000, -1.000000000000000000 ) ) ;
#144 = CARTESIAN_POINT ( 'NONE',  ( 186.3332970437571400, 0.0000000000000000000, 25.40000000000002700 ) ) ;
#145 = DIRECTION ( 'NONE',  ( 0.0000000000000000000, 1.224646799147353000E-016, -1.000000000000000000 ) ) ;
#146 =( GEOMETRIC_REPRESENTATION_CONTEXT ( 3 ) GLOBAL_UNCERTAINTY_ASSIGNED_CONTEXT ( ( #326 ) ) GLOBAL_UNIT_ASSIGNED_CONTEXT ( ( #131, #61, #316 ) ) REPRESENTATION_CONTEXT ( 'NONE', 'WORKASPACE' ) );
#147 = DIRECTION ( 'NONE',  ( -1.000000000000000000, -0.0000000000000000000, -0.0000000000000000000 ) ) ;
#148 = CIRCLE ( 'NONE', #301, 86.10000000000000900 ) ;
#149 = VERTEX_POINT ( 'NONE', #196 ) ;
#150 = DIRECTION ( 'NONE',  ( 1.000000000000000000, 0.0000000000000000000, 0.0000000000000000000 ) ) ;
#151 = AXIS2_PLACEMENT_3D ( 'NONE', #247, #165, #7 ) ;
#152 = COLOUR_RGB ( '',1.000000000000000000, 1.000000000000000000, 1.000000000000000000 ) ;
#153 = EDGE_CURVE ( 'NONE', #258, #241, #295, .T. ) ;
#154 = ORIENTED_EDGE ( 'NONE', *, *, #211, .T. ) ;
#155 = ADVANCED_FACE ( 'NONE', ( #102 ), #135, .T. ) ;
#156 = DIRECTION ( 'NONE',  ( 0.0000000000000000000, 0.0000000000000000000, 1.000000000000000000 ) ) ;
#157 = CLOSED_SHELL ( 'NONE', ( #80, #17, #159, #191, #53, #155 ) ) ;
#158 = EDGE_LOOP ( 'NONE', ( #289, #213, #74, #318 ) ) ;
#159 = ADVANCED_FACE ( 'NONE', ( #323 ), #280, .F. ) ;
#160 = FILL_AREA_STYLE ('',( #119 ) ) ;
#161 = CARTESIAN_POINT ( 'NONE',  ( 86.30790026873805200, 0.0000000000000000000, 2.916250489981909800E-014 ) ) ;
#162 = DIRECTION ( 'NONE',  ( 0.0000000000000000000, -1.000000000000000000, 0.0000000000000000000 ) ) ;
#163 = PRODUCT_DEFINITION_SHAPE ( 'NONE', 'NONE',  #115 ) ;
#164 = EDGE_CURVE ( 'NONE', #149, #81, #118, .T. ) ;
#165 = DIRECTION ( 'NONE',  ( -0.0000000000000000000, -1.000000000000000000, -0.0000000000000000000 ) ) ;
#166 = PRESENTATION_STYLE_ASSIGNMENT (( #183 ) ) ;
#167 = DIRECTION ( 'NONE',  ( -0.0000000000000000000, -1.000000000000000000, -0.0000000000000000000 ) ) ;
#168 = ORIENTED_EDGE ( 'NONE', *, *, #265, .F. ) ;
#169 = AXIS2_PLACEMENT_3D ( 'NONE', #328, #201, #255 ) ;
#170 = SURFACE_STYLE_FILL_AREA ( #160 ) ;
#171 = CARTESIAN_POINT ( 'NONE',  ( 86.30790026873805200, 0.0000000000000000000, 2.916250489981909800E-014 ) ) ;
#172 = DIRECTION ( 'NONE',  ( -1.000000000000000000, -0.0000000000000000000, -0.0000000000000000000 ) ) ;
#173 = DIRECTION ( 'NONE',  ( -1.000000000000000000, -0.0000000000000000000, -0.0000000000000000000 ) ) ;
#174 = EDGE_LOOP ( 'NONE', ( #333, #182, #25 ) ) ;
#175 = DIRECTION ( 'NONE',  ( -1.000000000000000000, -0.0000000000000000000, -0.0000000000000000000 ) ) ;
#176 = PRESENTATION_LAYER_ASSIGNMENT (  '', '', ( #269 ) ) ;
#177 = CARTESIAN_POINT ( 'NONE',  ( -0.5519199926577972300, 0.0000000000000000000, 0.0000000000000000000 ) ) ;
#178 = DIRECTION ( 'NONE',  ( 0.0000000000000000000, 0.0000000000000000000, 1.000000000000000000 ) ) ;
#179 = CARTESIAN_POINT ( 'NONE',  ( 186.3332970437571400, 3.110602869834280400E-015, -25.40000000000002700 ) ) ;
#180 = FILL_AREA_STYLE ('',( #252 ) ) ;
#181 = CARTESIAN_POINT ( 'NONE',  ( 184.5397411790878300, 0.0000000000000000000, -25.40000000000000600 ) ) ;
#182 = ORIENTED_EDGE ( 'NONE', *, *, #221, .T. ) ;
#183 = SURFACE_STYLE_USAGE ( .BOTH. , #96 ) ;
#184 = PRODUCT_DEFINITION_FORMATION_WITH_SPECIFIED_SOURCE ( 'ÈÎºÎ', '', #229, .NOT_KNOWN. ) ;
#185 = AXIS2_PLACEMENT_3D ( 'NONE', #32, #250, #178 ) ;
#186 = SURFACE_STYLE_FILL_AREA ( #180 ) ;
#187 = UNCERTAINTY_MEASURE_WITH_UNIT (LENGTH_MEASURE( 1.000000000000000100E-005 ), #235, 'distance_accuracy_value', 'NONE');
#188 = ORIENTED_EDGE ( 'NONE', *, *, #59, .F. ) ;
#189 =( GEOMETRIC_REPRESENTATION_CONTEXT ( 3 ) GLOBAL_UNCERTAINTY_ASSIGNED_CONTEXT ( ( #105 ) ) GLOBAL_UNIT_ASSIGNED_CONTEXT ( ( #122, #66, #314 ) ) REPRESENTATION_CONTEXT ( 'NONE', 'WORKASPACE' ) );
#190 = CARTESIAN_POINT ( 'NONE',  ( 186.3332970437571400, 0.0000000000000000000, 0.0000000000000000000 ) ) ;
#191 = ADVANCED_FACE ( 'NONE', ( #123 ), #206, .F. ) ;
#192 = DIRECTION ( 'NONE',  ( 0.0000000000000000000, 0.0000000000000000000, 1.000000000000000000 ) ) ;
#193 = SURFACE_SIDE_STYLE ('',( #170 ) ) ;
#194 = STYLED_ITEM ( 'NONE', ( #166 ), #266 ) ;
#195 = APPLICATION_PROTOCOL_DEFINITION ( 'draft international standard', 'automotive_design', 1998, #129 ) ;
#196 = CARTESIAN_POINT ( 'NONE',  ( 194.4631393622327100, -3.110602869834275300E-015, 25.39999999999998400 ) ) ;
#197 = CIRCLE ( 'NONE', #126, 25.40000000000002700 ) ;
#198 = ORIENTED_EDGE ( 'NONE', *, *, #307, .T. ) ;
#199 = ORIENTED_EDGE ( 'NONE', *, *, #277, .T. ) ;
#200 = DIRECTION ( 'NONE',  ( 0.0000000000000000000, 0.0000000000000000000, -1.000000000000000000 ) ) ;
#201 = DIRECTION ( 'NONE',  ( -0.0000000000000000000, -1.000000000000000000, -0.0000000000000000000 ) ) ;
#202 = DIRECTION ( 'NONE',  ( -1.000000000000000000, -0.0000000000000000000, -0.0000000000000000000 ) ) ;
#203 = EDGE_LOOP ( 'NONE', ( #90, #31, #43 ) ) ;
#204 = AXIS2_PLACEMENT_3D ( 'NONE', #65, #293, #347 ) ;
#205 = ORIENTED_EDGE ( 'NONE', *, *, #267, .T. ) ;
#206 = SPHERICAL_SURFACE ( 'NONE', #232, 103.2000000000000200 ) ;
#207 = CARTESIAN_POINT ( 'NONE',  ( 186.3332970437571700, 0.0000000000000000000, -25.39999999999996300 ) ) ;
#208 = CIRCLE ( 'NONE', #124, 25.40000000000002700 ) ;
#209 = DIRECTION ( 'NONE',  ( -0.0000000000000000000, -1.000000000000000000, -0.0000000000000000000 ) ) ;
#210 = ORIENTED_EDGE ( 'NONE', *, *, #312, .F. ) ;
#211 = EDGE_CURVE ( 'NONE', #343, #339, #128, .T. ) ;
#212 = EDGE_CURVE ( 'NONE', #16, #241, #56, .T. ) ;
#213 = ORIENTED_EDGE ( 'NONE', *, *, #310, .T. ) ;
#214 = EDGE_CURVE ( 'NONE', #139, #339, #219, .T. ) ;
#215 = FILL_AREA_STYLE ('',( #106 ) ) ;
#216 = FACE_OUTER_BOUND ( 'NONE', #76, .T. ) ;
#217 = ADVANCED_FACE ( 'NONE', ( #14 ), #111, .T. ) ;
#218 = DIRECTION ( 'NONE',  ( 0.0000000000000000000, 1.224646799147353200E-016, -1.000000000000000000 ) ) ;
#219 = CIRCLE ( 'NONE', #83, 25.39999999999998800 ) ;
#220 = LINE ( 'NONE', #302, #236 ) ;
#221 = EDGE_CURVE ( 'NONE', #241, #8, #148, .T. ) ;
#222 = VERTEX_POINT ( 'NONE', #179 ) ;
#223 = EDGE_LOOP ( 'NONE', ( #50, #199, #1, #38 ) ) ;
#224 = DIRECTION ( 'NONE',  ( 0.0000000000000000000, 0.0000000000000000000, 1.000000000000000000 ) ) ;
#225 = EDGE_CURVE ( 'NONE', #149, #33, #264, .T. ) ;
#226 = DIRECTION ( 'NONE',  ( 0.0000000000000000000, -1.000000000000000000, -1.224646799147353200E-016 ) ) ;
#227 = ADVANCED_FACE ( 'NONE', ( #19 ), #44, .T. ) ;
#228 = DIRECTION ( 'NONE',  ( 0.0000000000000000000, 1.000000000000000000, -0.0000000000000000000 ) ) ;
#229 = PRODUCT ( '145184', '145184', '', ( #45 ) ) ;
#230 = DIRECTION ( 'NONE',  ( 0.0000000000000000000, 0.0000000000000000000, 1.000000000000000000 ) ) ;
#231 = CARTESIAN_POINT ( 'NONE',  ( 189.5079002687380400, 0.0000000000000000000, 3.548168238341944100E-014 ) ) ;
#232 = AXIS2_PLACEMENT_3D ( 'NONE', #171, #209, #28 ) ;
#233 = MECHANICAL_DESIGN_GEOMETRIC_PRESENTATION_REPRESENTATION (  '', ( #194 ), #189 ) ;
#234 = CLOSED_SHELL ( 'NONE', ( #99, #217, #51, #273, #245, #227 ) ) ;
#235 =( LENGTH_UNIT ( ) NAMED_UNIT ( * ) SI_UNIT ( .MILLI., .METRE. ) );
#236 = VECTOR ( 'NONE', #175, 1000.000000000000000 ) ;
#237 = AXIS2_PLACEMENT_3D ( 'NONE', #161, #54, #110 ) ;
#238 = DIRECTION ( 'NONE',  ( -0.0000000000000000000, -1.000000000000000000, -0.0000000000000000000 ) ) ;
#239 = CARTESIAN_POINT ( 'NONE',  ( -0.8160621761658039000, 0.0000000000000000000, 0.0000000000000000000 ) ) ;
#240 = AXIS2_PLACEMENT_3D ( 'NONE', #120, #20, #284 ) ;
#241 = VERTEX_POINT ( 'NONE', #15 ) ;
#242 = ORIENTED_EDGE ( 'NONE', *, *, #278, .F. ) ;
#243 = AXIS2_PLACEMENT_3D ( 'NONE', #321, #275, #297 ) ;
#244 = DIRECTION ( 'NONE',  ( 0.0000000000000000000, -1.000000000000000000, -1.224646799147353200E-016 ) ) ;
#245 = ADVANCED_FACE ( 'NONE', ( #78 ), #287, .T. ) ;
#246 = AXIS2_PLACEMENT_3D ( 'NONE', #304, #147, #261 ) ;
#247 = CARTESIAN_POINT ( 'NONE',  ( 358.4679002687381100, 0.0000000000000000000, 0.0000000000000000000 ) ) ;
#248 = CARTESIAN_POINT ( 'NONE',  ( 184.5397411790878300, 0.0000000000000000000, 0.0000000000000000000 ) ) ;
#249 = PRESENTATION_STYLE_ASSIGNMENT (( #55 ) ) ;
#250 = DIRECTION ( 'NONE',  ( -1.000000000000000000, -0.0000000000000000000, -0.0000000000000000000 ) ) ;
#251 =( GEOMETRIC_REPRESENTATION_CONTEXT ( 3 ) GLOBAL_UNCERTAINTY_ASSIGNED_CONTEXT ( ( #187 ) ) GLOBAL_UNIT_ASSIGNED_CONTEXT ( ( #235, #6, #34 ) ) REPRESENTATION_CONTEXT ( 'NONE', 'WORKASPACE' ) );
#252 = FILL_AREA_STYLE_COLOUR ( '', #5 ) ;
#253 = DIRECTION ( 'NONE',  ( -1.000000000000000000, -0.0000000000000000000, -0.0000000000000000000 ) ) ;
#254 = DIRECTION ( 'NONE',  ( 0.0000000000000000000, 0.0000000000000000000, 1.000000000000000000 ) ) ;
#255 = DIRECTION ( 'NONE',  ( 0.0000000000000000000, 0.0000000000000000000, -1.000000000000000000 ) ) ;
#256 = DIRECTION ( 'NONE',  ( 0.0000000000000000000, 0.0000000000000000000, 1.000000000000000000 ) ) ;
#257 = EDGE_LOOP ( 'NONE', ( #342, #327, #42, #130 ) ) ;
#258 = VERTEX_POINT ( 'NONE', #181 ) ;
#259 =( LENGTH_UNIT ( ) NAMED_UNIT ( * ) SI_UNIT ( .MILLI., .METRE. ) );
#260 = AXIS2_PLACEMENT_3D ( 'NONE', #132, #294, #279 ) ;
#261 = DIRECTION ( 'NONE',  ( 0.0000000000000000000, 0.0000000000000000000, 1.000000000000000000 ) ) ;
#262 =( NAMED_UNIT ( * ) SI_UNIT ( $, .STERADIAN. ) SOLID_ANGLE_UNIT ( ) );
#263 = CARTESIAN_POINT ( 'NONE',  ( 358.4679002687381100, 0.0000000000000000000, 0.0000000000000000000 ) ) ;
#264 = CIRCLE ( 'NONE', #41, 165.9600000000000100 ) ;
#265 = EDGE_CURVE ( 'NONE', #109, #16, #282, .T. ) ;
#266 = ADVANCED_BREP_SHAPE_REPRESENTATION ( '145184', ( #85, #73, #40 ), #146 ) ;
#267 = EDGE_CURVE ( 'NONE', #109, #222, #283, .T. ) ;
#268 = EDGE_LOOP ( 'NONE', ( #26, #2, #12 ) ) ;
#269 = STYLED_ITEM ( 'NONE', ( #249 ), #73 ) ;
#270 = CARTESIAN_POINT ( 'NONE',  ( 186.3332970437571700, -3.110602869834272900E-015, 25.39999999999999100 ) ) ;
#271 = VECTOR ( 'NONE', #172, 1000.000000000000000 ) ;
#272 = EDGE_CURVE ( 'NONE', #16, #222, #296, .T. ) ;
#273 = ADVANCED_FACE ( 'NONE', ( #49 ), #11, .T. ) ;
#274 = CARTESIAN_POINT ( 'NONE',  ( 186.3332970437571700, 0.0000000000000000000, 0.0000000000000000000 ) ) ;
#275 = DIRECTION ( 'NONE',  ( -0.0000000000000000000, 1.000000000000000000, 1.224646799147353200E-016 ) ) ;
#276 = CARTESIAN_POINT ( 'NONE',  ( 180.7079002687380600, 0.0000000000000000000, 2.389040042948973200E-014 ) ) ;
#277 = EDGE_CURVE ( 'NONE', #81, #149, #313, .T. ) ;
#278 = EDGE_CURVE ( 'NONE', #149, #339, #220, .T. ) ;
#279 = DIRECTION ( 'NONE',  ( 0.0000000000000000000, 0.0000000000000000000, -1.000000000000000000 ) ) ;
#280 = SPHERICAL_SURFACE ( 'NONE', #260, 103.2000000000000200 ) ;
#281 = EDGE_CURVE ( 'NONE', #241, #258, #208, .T. ) ;
#282 = CIRCLE ( 'NONE', #95, 103.2000000000000000 ) ;
#283 = CIRCLE ( 'NONE', #243, 103.2000000000000000 ) ;
#284 = DIRECTION ( 'NONE',  ( 0.0000000000000000000, 0.0000000000000000000, 1.000000000000000000 ) ) ;
#285 =( GEOMETRIC_REPRESENTATION_CONTEXT ( 3 ) GLOBAL_UNCERTAINTY_ASSIGNED_CONTEXT ( ( #298 ) ) GLOBAL_UNIT_ASSIGNED_CONTEXT ( ( #259, #10, #262 ) ) REPRESENTATION_CONTEXT ( 'NONE', 'WORKASPACE' ) );
#286 = SPHERICAL_SURFACE ( 'NONE', #237, 103.2000000000000000 ) ;
#287 = CYLINDRICAL_SURFACE ( 'NONE', #98, 25.40000000000002700 ) ;
#288 = EDGE_LOOP ( 'NONE', ( #188, #154, #70 ) ) ;
#289 = ORIENTED_EDGE ( 'NONE', *, *, #13, .F. ) ;
#290 = PRESENTATION_LAYER_ASSIGNMENT (  '', '', ( #331 ) ) ;
#291 = CARTESIAN_POINT ( 'NONE',  ( 184.5397411790878300, 0.0000000000000000000, 0.0000000000000000000 ) ) ;
#292 = DIRECTION ( 'NONE',  ( 0.0000000000000000000, 1.000000000000000000, -0.0000000000000000000 ) ) ;
#293 = DIRECTION ( 'NONE',  ( -1.000000000000000000, -0.0000000000000000000, -0.0000000000000000000 ) ) ;
#294 = DIRECTION ( 'NONE',  ( -0.0000000000000000000, -1.000000000000000000, -0.0000000000000000000 ) ) ;
#295 = CIRCLE ( 'NONE', #91, 25.40000000000002700 ) ;
#296 = CIRCLE ( 'NONE', #101, 25.40000000000002700 ) ;
#297 = DIRECTION ( 'NONE',  ( 0.0000000000000000000, -1.224646799147353200E-016, 1.000000000000000000 ) ) ;
#298 = UNCERTAINTY_MEASURE_WITH_UNIT (LENGTH_MEASURE( 1.000000000000000100E-005 ), #259, 'distance_accuracy_value', 'NONE');
#299 = AXIS2_PLACEMENT_3D ( 'NONE', #306, #68, #57 ) ;
#300 = DIRECTION ( 'NONE',  ( -1.000000000000000000, -0.0000000000000000000, -0.0000000000000000000 ) ) ;
#301 = AXIS2_PLACEMENT_3D ( 'NONE', #305, #226, #145 ) ;
#302 = CARTESIAN_POINT ( 'NONE',  ( -0.5519199926577972300, 0.0000000000000000000, 25.39999999999999100 ) ) ;
#303 = ORIENTED_EDGE ( 'NONE', *, *, #221, .F. ) ;
#304 = CARTESIAN_POINT ( 'NONE',  ( -0.8160621761658039000, 0.0000000000000000000, 0.0000000000000000000 ) ) ;
#305 = CARTESIAN_POINT ( 'NONE',  ( 266.8079002687380800, 0.0000000000000000000, 2.916250489981908500E-014 ) ) ;
#306 = CARTESIAN_POINT ( 'NONE',  ( 86.30790026873805200, 0.0000000000000000000, 2.916250489981909800E-014 ) ) ;
#307 = EDGE_CURVE ( 'NONE', #81, #139, #24, .T. ) ;
#308 = CARTESIAN_POINT ( 'NONE',  ( 186.3332970437571700, 0.0000000000000000000, 0.0000000000000000000 ) ) ;
#309 = PRODUCT_RELATED_PRODUCT_CATEGORY ( 'part', '', ( #229 ) ) ;
#310 = EDGE_CURVE ( 'NONE', #222, #16, #197, .T. ) ;
#311 = VECTOR ( 'NONE', #69, 1000.000000000000000 ) ;
#312 = EDGE_CURVE ( 'NONE', #339, #139, #30, .T. ) ;
#313 = CIRCLE ( 'NONE', #107, 25.39999999999999100 ) ;
#314 =( NAMED_UNIT ( * ) SI_UNIT ( $, .STERADIAN. ) SOLID_ANGLE_UNIT ( ) );
#315 = CYLINDRICAL_SURFACE ( 'NONE', #337, 25.39999999999999100 ) ;
#316 =( NAMED_UNIT ( * ) SI_UNIT ( $, .STERADIAN. ) SOLID_ANGLE_UNIT ( ) );
#317 = CARTESIAN_POINT ( 'NONE',  ( 194.4631393622327100, 0.0000000000000000000, -25.39999999999998400 ) ) ;
#318 = ORIENTED_EDGE ( 'NONE', *, *, #153, .F. ) ;
#319 = AXIS2_PLACEMENT_3D ( 'NONE', #3, #167, #200 ) ;
#320 = CARTESIAN_POINT ( 'NONE',  ( -0.5519199926577972300, 3.110602869834276100E-015, -25.39999999999999100 ) ) ;
#321 = CARTESIAN_POINT ( 'NONE',  ( 86.30790026873805200, 0.0000000000000000000, 2.916250489981909800E-014 ) ) ;
#322 = DIRECTION ( 'NONE',  ( 0.0000000000000000000, 0.0000000000000000000, -1.000000000000000000 ) ) ;
#323 = FACE_OUTER_BOUND ( 'NONE', #288, .T. ) ;
#324 = DIRECTION ( 'NONE',  ( 0.0000000000000000000, 1.000000000000000000, -0.0000000000000000000 ) ) ;
#325 = CARTESIAN_POINT ( 'NONE',  ( 192.5079002687381000, 0.0000000000000000000, -1.016211913932473800E-014 ) ) ;
#326 = UNCERTAINTY_MEASURE_WITH_UNIT (LENGTH_MEASURE( 1.000000000000000100E-005 ), #131, 'distance_accuracy_value', 'NONE');
#327 = ORIENTED_EDGE ( 'NONE', *, *, #13, .T. ) ;
#328 = CARTESIAN_POINT ( 'NONE',  ( 266.8079002687380800, 0.0000000000000000000, 2.916250489981908500E-014 ) ) ;
#329 = ORIENTED_EDGE ( 'NONE', *, *, #164, .T. ) ;
#330 = PRODUCT_DEFINITION_CONTEXT ( 'detailed design', #129, 'design' ) ;
#331 = STYLED_ITEM ( 'NONE', ( #58 ), #85 ) ;
#332 = FACE_OUTER_BOUND ( 'NONE', #52, .T. ) ;
#333 = ORIENTED_EDGE ( 'NONE', *, *, #153, .T. ) ;
#334 = ORIENTED_EDGE ( 'NONE', *, *, #4, .T. ) ;
#335 = DIRECTION ( 'NONE',  ( -1.000000000000000000, -0.0000000000000000000, -0.0000000000000000000 ) ) ;
#336 = ORIENTED_EDGE ( 'NONE', *, *, #310, .F. ) ;
#337 = AXIS2_PLACEMENT_3D ( 'NONE', #177, #300, #87 ) ;
#338 = DIRECTION ( 'NONE',  ( 0.0000000000000000000, 0.0000000000000000000, 1.000000000000000000 ) ) ;
#339 = VERTEX_POINT ( 'NONE', #270 ) ;
#340 = MECHANICAL_DESIGN_GEOMETRIC_PRESENTATION_REPRESENTATION (  '', ( #331 ), #285 ) ;
#341 = CARTESIAN_POINT ( 'NONE',  ( 0.0000000000000000000, 0.0000000000000000000, 0.0000000000000000000 ) ) ;
#342 = ORIENTED_EDGE ( 'NONE', *, *, #272, .T. ) ;
#343 = VERTEX_POINT ( 'NONE', #72 ) ;
#344 = EDGE_CURVE ( 'NONE', #81, #33, #46, .T. ) ;
#345 = SPHERICAL_SURFACE ( 'NONE', #151, 165.9600000000000100 ) ;
#346 = CARTESIAN_POINT ( 'NONE',  ( 266.8079002687380800, 0.0000000000000000000, 2.916250489981908500E-014 ) ) ;
#347 = DIRECTION ( 'NONE',  ( 0.0000000000000000000, 0.0000000000000000000, 1.000000000000000000 ) ) ;
ENDSEC;
END-ISO-10303-21;
