ISO-10303-21;
HEADER;
FILE_DESCRIPTION (( 'STEP AP214' ),
    '1' );
FILE_NAME ('145205.STEP',
    '2019-06-13T08:32:28',
    ( 'user' ),
    ( 'Î¢ÈíÖÐ¹ú' ),
    'SwSTEP 2.0',
    'SolidWorks 2016',
    '' );
FILE_SCHEMA (( 'AUTOMOTIVE_DESIGN' ));
ENDSEC;

DATA;
#1 = CIRCLE ( 'NONE', #42, 12.30000000000000200 ) ;
#2 = EDGE_CURVE ( 'NONE', #298, #276, #346, .T. ) ;
#3 =( LENGTH_UNIT ( ) NAMED_UNIT ( * ) SI_UNIT ( .MILLI., .METRE. ) );
#4 = DIRECTION ( 'NONE',  ( -1.000000000000000000, -0.0000000000000000000, 2.142917091192668200E-016 ) ) ;
#5 =( NAMED_UNIT ( * ) SI_UNIT ( $, .STERADIAN. ) SOLID_ANGLE_UNIT ( ) );
#6 = DIRECTION ( 'NONE',  ( -1.000000000000000000, -0.0000000000000000000, -0.0000000000000000000 ) ) ;
#7 = EDGE_CURVE ( 'NONE', #67, #241, #133, .T. ) ;
#8 = VERTEX_POINT ( 'NONE', #37 ) ;
#9 = AXIS2_PLACEMENT_3D ( 'NONE', #237, #94, #343 ) ;
#10 = PRODUCT_RELATED_PRODUCT_CATEGORY ( 'part', '', ( #325 ) ) ;
#11 = AXIS2_PLACEMENT_3D ( 'NONE', #125, #135, #137 ) ;
#12 = ORIENTED_EDGE ( 'NONE', *, *, #57, .T. ) ;
#13 = ORIENTED_EDGE ( 'NONE', *, *, #113, .T. ) ;
#14 = LINE ( 'NONE', #303, #176 ) ;
#15 = EDGE_CURVE ( 'NONE', #8, #178, #59, .T. ) ;
#16 = EDGE_CURVE ( 'NONE', #295, #178, #246, .T. ) ;
#17 = UNCERTAINTY_MEASURE_WITH_UNIT (LENGTH_MEASURE( 1.000000000000000100E-005 ), #78, 'distance_accuracy_value', 'NONE');
#18 = CYLINDRICAL_SURFACE ( 'NONE', #329, 6.349999999999936600 ) ;
#19 = DIRECTION ( 'NONE',  ( 0.0000000000000000000, 0.0000000000000000000, -1.000000000000000000 ) ) ;
#20 = FILL_AREA_STYLE_COLOUR ( '', #187 ) ;
#21 = AXIS2_PLACEMENT_3D ( 'NONE', #102, #160, #271 ) ;
#22 =( NAMED_UNIT ( * ) PLANE_ANGLE_UNIT ( ) SI_UNIT ( $, .RADIAN. ) );
#23 = ADVANCED_FACE ( 'NONE', ( #273 ), #116, .F. ) ;
#24 = ORIENTED_EDGE ( 'NONE', *, *, #16, .F. ) ;
#25 = AXIS2_PLACEMENT_3D ( 'NONE', #85, #174, #239 ) ;
#26 = CARTESIAN_POINT ( 'NONE',  ( 167.0151763999513700, 7.776507174585618200E-016, -6.349999999999939200 ) ) ;
#27 = CARTESIAN_POINT ( 'NONE',  ( 160.6172852869866000, 7.776507174585614300E-016, -6.349999999999936600 ) ) ;
#28 = DIRECTION ( 'NONE',  ( 0.0000000000000000000, -1.000000000000000000, -1.224646799147353200E-016 ) ) ;
#29 = EDGE_LOOP ( 'NONE', ( #310, #173, #170, #225 ) ) ;
#30 = EDGE_CURVE ( 'NONE', #218, #89, #90, .T. ) ;
#31 = CARTESIAN_POINT ( 'NONE',  ( 160.6172852869866000, 7.776507174585668500E-016, -6.350000000000043200 ) ) ;
#32 = ADVANCED_FACE ( 'NONE', ( #248 ), #63, .T. ) ;
#33 = EDGE_CURVE ( 'NONE', #218, #40, #311, .T. ) ;
#34 = ORIENTED_EDGE ( 'NONE', *, *, #331, .T. ) ;
#35 = EDGE_CURVE ( 'NONE', #297, #276, #79, .T. ) ;
#36 = FACE_OUTER_BOUND ( 'NONE', #144, .T. ) ;
#37 = CARTESIAN_POINT ( 'NONE',  ( 165.4060950437100200, 7.776507174585686200E-016, -6.350000000000048500 ) ) ;
#38 = ADVANCED_BREP_SHAPE_REPRESENTATION ( '145205', ( #64, #97, #249 ), #48 ) ;
#39 = PRODUCT_DEFINITION_FORMATION_WITH_SPECIFIED_SOURCE ( 'ÈÎºÎ', '', #325, .NOT_KNOWN. ) ;
#40 = VERTEX_POINT ( 'NONE', #228 ) ;
#41 = MECHANICAL_DESIGN_GEOMETRIC_PRESENTATION_REPRESENTATION (  '', ( #309 ), #105 ) ;
#42 = AXIS2_PLACEMENT_3D ( 'NONE', #307, #339, #313 ) ;
#43 = DIRECTION ( 'NONE',  ( -0.0000000000000000000, 1.000000000000000000, 0.0000000000000000000 ) ) ;
#44 = CARTESIAN_POINT ( 'NONE',  ( 163.8831740287930100, 0.0000000000000000000, -5.967288650263617800E-014 ) ) ;
#45 = AXIS2_PLACEMENT_3D ( 'NONE', #52, #247, #250 ) ;
#46 = ADVANCED_FACE ( 'NONE', ( #265 ), #328, .F. ) ;
#47 = DIRECTION ( 'NONE',  ( 0.0000000000000000000, 0.0000000000000000000, 1.000000000000000000 ) ) ;
#48 =( GEOMETRIC_REPRESENTATION_CONTEXT ( 3 ) GLOBAL_UNCERTAINTY_ASSIGNED_CONTEXT ( ( #17 ) ) GLOBAL_UNIT_ASSIGNED_CONTEXT ( ( #78, #54, #5 ) ) REPRESENTATION_CONTEXT ( 'NONE', 'WORKASPACE' ) );
#49 = ORIENTED_EDGE ( 'NONE', *, *, #15, .F. ) ;
#50 = ORIENTED_EDGE ( 'NONE', *, *, #106, .T. ) ;
#51 = CARTESIAN_POINT ( 'NONE',  ( -185.2744740506581700, 7.776507174585684300E-016, -6.349999999999972100 ) ) ;
#52 = CARTESIAN_POINT ( 'NONE',  ( 165.4060950437100200, 0.0000000000000000000, 0.0000000000000000000 ) ) ;
#53 = EDGE_CURVE ( 'NONE', #40, #218, #261, .T. ) ;
#54 =( NAMED_UNIT ( * ) PLANE_ANGLE_UNIT ( ) SI_UNIT ( $, .RADIAN. ) );
#55 = CIRCLE ( 'NONE', #77, 6.349999999999939200 ) ;
#56 = DIRECTION ( 'NONE',  ( -1.000000000000000000, -0.0000000000000000000, -0.0000000000000000000 ) ) ;
#57 = EDGE_CURVE ( 'NONE', #67, #260, #65, .T. ) ;
#58 = MECHANICAL_DESIGN_GEOMETRIC_PRESENTATION_REPRESENTATION (  '', ( #200 ), #219 ) ;
#59 = CIRCLE ( 'NONE', #317, 14.00000000000003600 ) ;
#60 = AXIS2_PLACEMENT_3D ( 'NONE', #163, #213, #344 ) ;
#61 = APPLICATION_CONTEXT ( 'automotive_design' ) ;
#62 =( GEOMETRIC_REPRESENTATION_CONTEXT ( 3 ) GLOBAL_UNCERTAINTY_ASSIGNED_CONTEXT ( ( #243 ) ) GLOBAL_UNIT_ASSIGNED_CONTEXT ( ( #3, #190, #131 ) ) REPRESENTATION_CONTEXT ( 'NONE', 'WORKASPACE' ) );
#63 = CYLINDRICAL_SURFACE ( 'NONE', #146, 6.349999999999992500 ) ;
#64 = MANIFOLD_SOLID_BREP ( 'Ðý×ª1', #270 ) ;
#65 = CIRCLE ( 'NONE', #212, 6.349999999999939200 ) ;
#66 = CIRCLE ( 'NONE', #99, 6.349999999999993400 ) ;
#67 = VERTEX_POINT ( 'NONE', #26 ) ;
#68 = SURFACE_SIDE_STYLE ('',( #266 ) ) ;
#69 = ADVANCED_FACE ( 'NONE', ( #117 ), #192, .T. ) ;
#70 = DIRECTION ( 'NONE',  ( 0.0000000000000000000, 0.0000000000000000000, 1.000000000000000000 ) ) ;
#71 = ADVANCED_FACE ( 'NONE', ( #277 ), #205, .F. ) ;
#72 = FILL_AREA_STYLE_COLOUR ( '', #245 ) ;
#73 = ADVANCED_FACE ( 'NONE', ( #195 ), #91, .T. ) ;
#74 = SPHERICAL_SURFACE ( 'NONE', #25, 14.00000000000003000 ) ;
#75 = CARTESIAN_POINT ( 'NONE',  ( 160.6172852869866000, 0.0000000000000000000, 6.349999999999936600 ) ) ;
#76 = SURFACE_SIDE_STYLE ('',( #109 ) ) ;
#77 = AXIS2_PLACEMENT_3D ( 'NONE', #83, #6, #253 ) ;
#78 =( LENGTH_UNIT ( ) NAMED_UNIT ( * ) SI_UNIT ( .MILLI., .METRE. ) );
#79 = CIRCLE ( 'NONE', #9, 12.30000000000000200 ) ;
#80 = FILL_AREA_STYLE ('',( #72 ) ) ;
#81 = CARTESIAN_POINT ( 'NONE',  ( 319.6831740287930200, 0.0000000000000000000, 0.0000000000000000000 ) ) ;
#82 = PRESENTATION_STYLE_ASSIGNMENT (( #180 ) ) ;
#83 = CARTESIAN_POINT ( 'NONE',  ( 167.0151763999513700, 0.0000000000000000000, 0.0000000000000000000 ) ) ;
#84 = EDGE_LOOP ( 'NONE', ( #157, #110, #13, #238 ) ) ;
#85 = CARTESIAN_POINT ( 'NONE',  ( 177.8831740287930600, 0.0000000000000000000, -6.053013926203932400E-014 ) ) ;
#86 = ADVANCED_FACE ( 'NONE', ( #111 ), #305, .F. ) ;
#87 = ORIENTED_EDGE ( 'NONE', *, *, #257, .F. ) ;
#88 = CARTESIAN_POINT ( 'NONE',  ( 319.6831740287930200, 0.0000000000000000000, 0.0000000000000000000 ) ) ;
#89 = VERTEX_POINT ( 'NONE', #44 ) ;
#90 = CIRCLE ( 'NONE', #141, 14.00000000000003000 ) ;
#91 = CYLINDRICAL_SURFACE ( 'NONE', #134, 6.349999999999992500 ) ;
#92 = CARTESIAN_POINT ( 'NONE',  ( 167.0151763999513700, 0.0000000000000000000, 0.0000000000000000000 ) ) ;
#93 = DIRECTION ( 'NONE',  ( 0.0000000000000000000, 0.0000000000000000000, 1.000000000000000000 ) ) ;
#94 = DIRECTION ( 'NONE',  ( 2.624316556567258100E-032, 1.000000000000000000, 1.224646799147353200E-016 ) ) ;
#95 = PRODUCT_DEFINITION_CONTEXT ( 'detailed design', #61, 'design' ) ;
#96 = ORIENTED_EDGE ( 'NONE', *, *, #119, .F. ) ;
#97 = MANIFOLD_SOLID_BREP ( 'Ðý×ª3', #232 ) ;
#98 = DIRECTION ( 'NONE',  ( -1.000000000000000000, -0.0000000000000000000, 2.142917091192668200E-016 ) ) ;
#99 = AXIS2_PLACEMENT_3D ( 'NONE', #217, #98, #183 ) ;
#100 = EDGE_LOOP ( 'NONE', ( #49, #289, #222 ) ) ;
#101 = APPLICATION_PROTOCOL_DEFINITION ( 'draft international standard', 'automotive_design', 1998, #158 ) ;
#102 = CARTESIAN_POINT ( 'NONE',  ( 150.0831740287930200, 0.0000000000000000000, -6.053013930451838600E-014 ) ) ;
#103 = FACE_OUTER_BOUND ( 'NONE', #284, .T. ) ;
#104 = DIRECTION ( 'NONE',  ( 0.0000000000000000000, 0.0000000000000000000, 1.000000000000000000 ) ) ;
#105 =( GEOMETRIC_REPRESENTATION_CONTEXT ( 3 ) GLOBAL_UNCERTAINTY_ASSIGNED_CONTEXT ( ( #318 ) ) GLOBAL_UNIT_ASSIGNED_CONTEXT ( ( #149, #22, #279 ) ) REPRESENTATION_CONTEXT ( 'NONE', 'WORKASPACE' ) );
#106 = EDGE_CURVE ( 'NONE', #297, #298, #1, .T. ) ;
#107 = ORIENTED_EDGE ( 'NONE', *, *, #106, .F. ) ;
#108 = CARTESIAN_POINT ( 'NONE',  ( 0.0000000000000000000, 0.0000000000000000000, 0.0000000000000000000 ) ) ;
#109 = SURFACE_STYLE_FILL_AREA ( #80 ) ;
#110 = ORIENTED_EDGE ( 'NONE', *, *, #119, .T. ) ;
#111 = FACE_OUTER_BOUND ( 'NONE', #304, .T. ) ;
#112 = AXIS2_PLACEMENT_3D ( 'NONE', #196, #224, #223 ) ;
#113 = EDGE_CURVE ( 'NONE', #295, #298, #14, .T. ) ;
#114 = PRODUCT_DEFINITION_SHAPE ( 'NONE', 'NONE',  #342 ) ;
#115 = AXIS2_PLACEMENT_3D ( 'NONE', #177, #221, #19 ) ;
#116 = SPHERICAL_SURFACE ( 'NONE', #21, 12.30000000000000200 ) ;
#117 = FACE_OUTER_BOUND ( 'NONE', #242, .T. ) ;
#118 = CARTESIAN_POINT ( 'NONE',  ( 177.8831740287930600, 0.0000000000000000000, -6.053013926203932400E-014 ) ) ;
#119 = EDGE_CURVE ( 'NONE', #8, #295, #330, .T. ) ;
#120 = ORIENTED_EDGE ( 'NONE', *, *, #35, .F. ) ;
#121 = FILL_AREA_STYLE ('',( #185 ) ) ;
#122 = CARTESIAN_POINT ( 'NONE',  ( 177.8831740287930600, 0.0000000000000000000, -6.053013926203932400E-014 ) ) ;
#123 = CARTESIAN_POINT ( 'NONE',  ( 165.4060950437100200, 7.776507174585608300E-016, -6.349999999999992500 ) ) ;
#124 = ORIENTED_EDGE ( 'NONE', *, *, #278, .F. ) ;
#125 = CARTESIAN_POINT ( 'NONE',  ( 319.6831740287930200, 0.0000000000000000000, 0.0000000000000000000 ) ) ;
#126 = SURFACE_STYLE_FILL_AREA ( #230 ) ;
#127 = ORIENTED_EDGE ( 'NONE', *, *, #262, .T. ) ;
#128 = FACE_OUTER_BOUND ( 'NONE', #100, .T. ) ;
#129 = DIRECTION ( 'NONE',  ( 0.0000000000000000000, -1.224646799147353200E-016, 1.000000000000000000 ) ) ;
#130 = DIRECTION ( 'NONE',  ( -1.000000000000000000, -0.0000000000000000000, 2.142917091192668200E-016 ) ) ;
#131 =( NAMED_UNIT ( * ) SI_UNIT ( $, .STERADIAN. ) SOLID_ANGLE_UNIT ( ) );
#132 = UNCERTAINTY_MEASURE_WITH_UNIT (LENGTH_MEASURE( 1.000000000000000100E-005 ), #283, 'distance_accuracy_value', 'NONE');
#133 = CIRCLE ( 'NONE', #11, 152.8000000000000100 ) ;
#134 = AXIS2_PLACEMENT_3D ( 'NONE', #252, #172, #147 ) ;
#135 = DIRECTION ( 'NONE',  ( 0.0000000000000000000, 1.000000000000000000, -0.0000000000000000000 ) ) ;
#136 = CIRCLE ( 'NONE', #323, 6.349999999999991700 ) ;
#137 = DIRECTION ( 'NONE',  ( 0.0000000000000000000, 0.0000000000000000000, 1.000000000000000000 ) ) ;
#138 = CARTESIAN_POINT ( 'NONE',  ( 160.6172852869866000, 0.0000000000000000000, -5.360141021943293100E-014 ) ) ;
#139 = VECTOR ( 'NONE', #294, 1000.000000000000000 ) ;
#140 = ORIENTED_EDGE ( 'NONE', *, *, #35, .T. ) ;
#141 = AXIS2_PLACEMENT_3D ( 'NONE', #308, #333, #129 ) ;
#142 = AXIS2_PLACEMENT_3D ( 'NONE', #88, #28, #290 ) ;
#143 = PRESENTATION_LAYER_ASSIGNMENT (  '', '', ( #309 ) ) ;
#144 = EDGE_LOOP ( 'NONE', ( #226, #334, #198 ) ) ;
#145 = SURFACE_SIDE_STYLE ('',( #126 ) ) ;
#146 = AXIS2_PLACEMENT_3D ( 'NONE', #337, #312, #347 ) ;
#147 = DIRECTION ( 'NONE',  ( 0.0000000000000000000, 0.0000000000000000000, 1.000000000000000000 ) ) ;
#148 = DIRECTION ( 'NONE',  ( 2.624316556567258100E-032, 1.000000000000000000, 1.224646799147353200E-016 ) ) ;
#149 =( LENGTH_UNIT ( ) NAMED_UNIT ( * ) SI_UNIT ( .MILLI., .METRE. ) );
#150 = ORIENTED_EDGE ( 'NONE', *, *, #53, .T. ) ;
#151 = DIRECTION ( 'NONE',  ( 0.0000000000000000000, 0.0000000000000000000, 1.000000000000000000 ) ) ;
#152 = STYLED_ITEM ( 'NONE', ( #211 ), #97 ) ;
#153 = CARTESIAN_POINT ( 'NONE',  ( 160.6172852869866000, 0.0000000000000000000, 0.0000000000000000000 ) ) ;
#154 = ADVANCED_FACE ( 'NONE', ( #128 ), #327, .F. ) ;
#155 = SHAPE_DEFINITION_REPRESENTATION ( #114, #38 ) ;
#156 = ORIENTED_EDGE ( 'NONE', *, *, #7, .F. ) ;
#157 = ORIENTED_EDGE ( 'NONE', *, *, #244, .F. ) ;
#158 = APPLICATION_CONTEXT ( 'automotive_design' ) ;
#159 = SPHERICAL_SURFACE ( 'NONE', #60, 152.8000000000000100 ) ;
#160 = DIRECTION ( 'NONE',  ( -0.0000000000000000000, 1.000000000000000000, 0.0000000000000000000 ) ) ;
#161 = CARTESIAN_POINT ( 'NONE',  ( 163.8831740287930100, 0.0000000000000000000, -5.667280257496643300E-014 ) ) ;
#162 = SURFACE_STYLE_USAGE ( .BOTH. , #145 ) ;
#163 = CARTESIAN_POINT ( 'NONE',  ( 319.6831740287930200, 0.0000000000000000000, 0.0000000000000000000 ) ) ;
#164 = DIRECTION ( 'NONE',  ( 0.0000000000000000000, 0.0000000000000000000, 1.000000000000000000 ) ) ;
#165 = AXIS2_PLACEMENT_3D ( 'NONE', #336, #43, #93 ) ;
#166 = ORIENTED_EDGE ( 'NONE', *, *, #278, .T. ) ;
#167 = CIRCLE ( 'NONE', #142, 152.8000000000000100 ) ;
#168 = EDGE_LOOP ( 'NONE', ( #120, #50, #179 ) ) ;
#169 = FACE_OUTER_BOUND ( 'NONE', #321, .T. ) ;
#170 = ORIENTED_EDGE ( 'NONE', *, *, #2, .F. ) ;
#171 = APPLICATION_PROTOCOL_DEFINITION ( 'draft international standard', 'automotive_design', 1998, #61 ) ;
#172 = DIRECTION ( 'NONE',  ( -1.000000000000000000, -0.0000000000000000000, 2.142917091192668200E-016 ) ) ;
#173 = ORIENTED_EDGE ( 'NONE', *, *, #244, .T. ) ;
#174 = DIRECTION ( 'NONE',  ( 0.0000000000000000000, 1.000000000000000000, 0.0000000000000000000 ) ) ;
#175 = CARTESIAN_POINT ( 'NONE',  ( 166.8831740287930100, 0.0000000000000000000, -9.356301545485780500E-015 ) ) ;
#176 = VECTOR ( 'NONE', #280, 1000.000000000000000 ) ;
#177 = CARTESIAN_POINT ( 'NONE',  ( 177.8831740287930600, 0.0000000000000000000, -6.053013926203932400E-014 ) ) ;
#178 = VERTEX_POINT ( 'NONE', #161 ) ;
#179 = ORIENTED_EDGE ( 'NONE', *, *, #2, .T. ) ;
#180 = SURFACE_STYLE_USAGE ( .BOTH. , #76 ) ;
#181 = CARTESIAN_POINT ( 'NONE',  ( 165.4060950437100200, 0.0000000000000000000, 6.349999999999939200 ) ) ;
#182 = ADVANCED_FACE ( 'NONE', ( #169 ), #267, .T. ) ;
#183 = DIRECTION ( 'NONE',  ( 0.0000000000000000000, 0.0000000000000000000, 1.000000000000000000 ) ) ;
#184 = ORIENTED_EDGE ( 'NONE', *, *, #15, .T. ) ;
#185 = FILL_AREA_STYLE_COLOUR ( '', #202 ) ;
#186 = DIRECTION ( 'NONE',  ( -1.000000000000000000, -0.0000000000000000000, 2.142917091192668200E-016 ) ) ;
#187 = COLOUR_RGB ( '',1.000000000000000000, 1.000000000000000000, 1.000000000000000000 ) ;
#188 = CARTESIAN_POINT ( 'NONE',  ( 177.8831740287930600, 0.0000000000000000000, -6.053013926203932400E-014 ) ) ;
#189 = AXIS2_PLACEMENT_3D ( 'NONE', #300, #214, #47 ) ;
#190 =( NAMED_UNIT ( * ) PLANE_ANGLE_UNIT ( ) SI_UNIT ( $, .RADIAN. ) );
#191 = DIRECTION ( 'NONE',  ( 0.0000000000000000000, 0.0000000000000000000, 1.000000000000000000 ) ) ;
#192 = SPHERICAL_SURFACE ( 'NONE', #255, 14.00000000000003000 ) ;
#193 = ORIENTED_EDGE ( 'NONE', *, *, #30, .T. ) ;
#194 = ORIENTED_EDGE ( 'NONE', *, *, #57, .F. ) ;
#195 = FACE_OUTER_BOUND ( 'NONE', #84, .T. ) ;
#196 = CARTESIAN_POINT ( 'NONE',  ( 165.4060950437100200, 0.0000000000000000000, 0.0000000000000000000 ) ) ;
#197 = PRESENTATION_STYLE_ASSIGNMENT (( #335 ) ) ;
#198 = ORIENTED_EDGE ( 'NONE', *, *, #199, .T. ) ;
#199 = EDGE_CURVE ( 'NONE', #40, #89, #299, .T. ) ;
#200 = STYLED_ITEM ( 'NONE', ( #82 ), #38 ) ;
#201 = DIRECTION ( 'NONE',  ( 0.0000000000000000000, 1.000000000000000000, 0.0000000000000000000 ) ) ;
#202 = COLOUR_RGB ( '',1.000000000000000000, 1.000000000000000000, 1.000000000000000000 ) ;
#203 = DIRECTION ( 'NONE',  ( 0.0000000000000000000, 0.0000000000000000000, 1.000000000000000000 ) ) ;
#204 = AXIS2_PLACEMENT_3D ( 'NONE', #118, #258, #293 ) ;
#205 = SPHERICAL_SURFACE ( 'NONE', #165, 12.30000000000000200 ) ;
#206 = DIRECTION ( 'NONE',  ( -0.0000000000000000000, 1.000000000000000000, 0.0000000000000000000 ) ) ;
#207 = ADVANCED_FACE ( 'NONE', ( #272 ), #159, .F. ) ;
#208 = CARTESIAN_POINT ( 'NONE',  ( 160.6172852869866000, 0.0000000000000000000, 0.0000000000000000000 ) ) ;
#209 = VECTOR ( 'NONE', #56, 1000.000000000000000 ) ;
#210 = EDGE_LOOP ( 'NONE', ( #235, #302, #156 ) ) ;
#211 = PRESENTATION_STYLE_ASSIGNMENT (( #162 ) ) ;
#212 = AXIS2_PLACEMENT_3D ( 'NONE', #92, #275, #203 ) ;
#213 = DIRECTION ( 'NONE',  ( -0.0000000000000000000, -1.000000000000000000, -0.0000000000000000000 ) ) ;
#214 = DIRECTION ( 'NONE',  ( -0.0000000000000000000, 1.000000000000000000, 0.0000000000000000000 ) ) ;
#215 = LINE ( 'NONE', #51, #282 ) ;
#216 = ADVANCED_FACE ( 'NONE', ( #36 ), #74, .T. ) ;
#217 = CARTESIAN_POINT ( 'NONE',  ( 165.4060950437100200, 0.0000000000000000000, -5.462761244684820000E-014 ) ) ;
#218 = VERTEX_POINT ( 'NONE', #123 ) ;
#219 =( GEOMETRIC_REPRESENTATION_CONTEXT ( 3 ) GLOBAL_UNCERTAINTY_ASSIGNED_CONTEXT ( ( #132 ) ) GLOBAL_UNIT_ASSIGNED_CONTEXT ( ( #283, #322, #231 ) ) REPRESENTATION_CONTEXT ( 'NONE', 'WORKASPACE' ) );
#220 = DIRECTION ( 'NONE',  ( -0.0000000000000000000, -1.000000000000000000, -0.0000000000000000000 ) ) ;
#221 = DIRECTION ( 'NONE',  ( 0.0000000000000000000, -1.000000000000000000, 0.0000000000000000000 ) ) ;
#222 = ORIENTED_EDGE ( 'NONE', *, *, #16, .T. ) ;
#223 = DIRECTION ( 'NONE',  ( 0.0000000000000000000, 0.0000000000000000000, 1.000000000000000000 ) ) ;
#224 = DIRECTION ( 'NONE',  ( -1.000000000000000000, -0.0000000000000000000, -0.0000000000000000000 ) ) ;
#225 = ORIENTED_EDGE ( 'NONE', *, *, #113, .F. ) ;
#226 = ORIENTED_EDGE ( 'NONE', *, *, #30, .F. ) ;
#227 = DIRECTION ( 'NONE',  ( 0.0000000000000000000, 0.0000000000000000000, 1.000000000000000000 ) ) ;
#228 = CARTESIAN_POINT ( 'NONE',  ( 165.4060950437100200, 0.0000000000000000000, 6.349999999999932100 ) ) ;
#229 = ADVANCED_FACE ( 'NONE', ( #103 ), #18, .T. ) ;
#230 = FILL_AREA_STYLE ('',( #20 ) ) ;
#231 =( NAMED_UNIT ( * ) SI_UNIT ( $, .STERADIAN. ) SOLID_ANGLE_UNIT ( ) );
#232 = CLOSED_SHELL ( 'NONE', ( #46, #229, #69, #216, #182, #207 ) ) ;
#233 = EDGE_CURVE ( 'NONE', #295, #8, #66, .T. ) ;
#234 = DIRECTION ( 'NONE',  ( -1.000000000000000000, -0.0000000000000000000, -0.0000000000000000000 ) ) ;
#235 = ORIENTED_EDGE ( 'NONE', *, *, #236, .F. ) ;
#236 = EDGE_CURVE ( 'NONE', #260, #67, #55, .T. ) ;
#237 = CARTESIAN_POINT ( 'NONE',  ( 150.0831740287930200, 0.0000000000000000000, -6.053013930451838600E-014 ) ) ;
#238 = ORIENTED_EDGE ( 'NONE', *, *, #262, .F. ) ;
#239 = DIRECTION ( 'NONE',  ( 0.0000000000000000000, 0.0000000000000000000, 1.000000000000000000 ) ) ;
#240 = AXIS2_PLACEMENT_3D ( 'NONE', #301, #206, #227 ) ;
#241 = VERTEX_POINT ( 'NONE', #175 ) ;
#242 = EDGE_LOOP ( 'NONE', ( #150, #193, #256 ) ) ;
#243 = UNCERTAINTY_MEASURE_WITH_UNIT (LENGTH_MEASURE( 1.000000000000000100E-005 ), #3, 'distance_accuracy_value', 'NONE');
#244 = EDGE_CURVE ( 'NONE', #8, #276, #215, .T. ) ;
#245 = COLOUR_RGB ( '',1.000000000000000000, 1.000000000000000000, 1.000000000000000000 ) ;
#246 = CIRCLE ( 'NONE', #204, 14.00000000000003600 ) ;
#247 = DIRECTION ( 'NONE',  ( -1.000000000000000000, -0.0000000000000000000, -0.0000000000000000000 ) ) ;
#248 = FACE_OUTER_BOUND ( 'NONE', #29, .T. ) ;
#249 = AXIS2_PLACEMENT_3D ( 'NONE', #108, #104, #287 ) ;
#250 = DIRECTION ( 'NONE',  ( 0.0000000000000000000, 0.0000000000000000000, 1.000000000000000000 ) ) ;
#251 = ORIENTED_EDGE ( 'NONE', *, *, #331, .F. ) ;
#252 = CARTESIAN_POINT ( 'NONE',  ( -185.2744740506581700, 0.0000000000000000000, 2.052032605930108700E-014 ) ) ;
#253 = DIRECTION ( 'NONE',  ( 0.0000000000000000000, 0.0000000000000000000, 1.000000000000000000 ) ) ;
#254 = CARTESIAN_POINT ( 'NONE',  ( 162.3831740287930400, 0.0000000000000000000, -6.241276954520975000E-014 ) ) ;
#255 = AXIS2_PLACEMENT_3D ( 'NONE', #122, #201, #70 ) ;
#256 = ORIENTED_EDGE ( 'NONE', *, *, #199, .F. ) ;
#257 = EDGE_CURVE ( 'NONE', #260, #241, #167, .T. ) ;
#258 = DIRECTION ( 'NONE',  ( 0.0000000000000000000, -1.000000000000000000, 0.0000000000000000000 ) ) ;
#259 = DIRECTION ( 'NONE',  ( -1.000000000000000000, -0.0000000000000000000, -0.0000000000000000000 ) ) ;
#260 = VERTEX_POINT ( 'NONE', #332 ) ;
#261 = CIRCLE ( 'NONE', #45, 6.349999999999933900 ) ;
#262 = EDGE_CURVE ( 'NONE', #276, #298, #136, .T. ) ;
#263 = CARTESIAN_POINT ( 'NONE',  ( 160.6172852869866000, 0.0000000000000000000, -5.360141021943293100E-014 ) ) ;
#264 = DIRECTION ( 'NONE',  ( -1.000000000000000000, -0.0000000000000000000, 2.142917091192668200E-016 ) ) ;
#265 = FACE_OUTER_BOUND ( 'NONE', #210, .T. ) ;
#266 = SURFACE_STYLE_FILL_AREA ( #121 ) ;
#267 = CYLINDRICAL_SURFACE ( 'NONE', #274, 6.349999999999936600 ) ;
#268 = PRESENTATION_LAYER_ASSIGNMENT (  '', '', ( #200 ) ) ;
#269 = PRESENTATION_LAYER_ASSIGNMENT (  '', '', ( #152 ) ) ;
#270 = CLOSED_SHELL ( 'NONE', ( #86, #32, #71, #23, #73, #154 ) ) ;
#271 = DIRECTION ( 'NONE',  ( 0.0000000000000000000, 0.0000000000000000000, 1.000000000000000000 ) ) ;
#272 = FACE_OUTER_BOUND ( 'NONE', #340, .T. ) ;
#273 = FACE_OUTER_BOUND ( 'NONE', #168, .T. ) ;
#274 = AXIS2_PLACEMENT_3D ( 'NONE', #153, #259, #151 ) ;
#275 = DIRECTION ( 'NONE',  ( -1.000000000000000000, -0.0000000000000000000, -0.0000000000000000000 ) ) ;
#276 = VERTEX_POINT ( 'NONE', #31 ) ;
#277 = FACE_OUTER_BOUND ( 'NONE', #286, .T. ) ;
#278 = EDGE_CURVE ( 'NONE', #67, #218, #320, .T. ) ;
#279 =( NAMED_UNIT ( * ) SI_UNIT ( $, .STERADIAN. ) SOLID_ANGLE_UNIT ( ) );
#280 = DIRECTION ( 'NONE',  ( -1.000000000000000000, -0.0000000000000000000, 2.142917091192668200E-016 ) ) ;
#281 = ORIENTED_EDGE ( 'NONE', *, *, #7, .T. ) ;
#282 = VECTOR ( 'NONE', #264, 1000.000000000000000 ) ;
#283 =( LENGTH_UNIT ( ) NAMED_UNIT ( * ) SI_UNIT ( .MILLI., .METRE. ) );
#284 = EDGE_LOOP ( 'NONE', ( #316, #166, #345, #251 ) ) ;
#285 = CARTESIAN_POINT ( 'NONE',  ( 160.6172852869866000, 0.0000000000000000000, 6.349999999999925900 ) ) ;
#286 = EDGE_LOOP ( 'NONE', ( #107, #140, #127 ) ) ;
#287 = DIRECTION ( 'NONE',  ( 1.000000000000000000, 0.0000000000000000000, 0.0000000000000000000 ) ) ;
#288 = PRODUCT_CONTEXT ( 'NONE', #158, 'mechanical' ) ;
#289 = ORIENTED_EDGE ( 'NONE', *, *, #233, .F. ) ;
#290 = DIRECTION ( 'NONE',  ( 0.0000000000000000000, 1.224646799147353500E-016, -1.000000000000000000 ) ) ;
#291 = DIRECTION ( 'NONE',  ( 0.0000000000000000000, 0.0000000000000000000, 1.000000000000000000 ) ) ;
#292 = ORIENTED_EDGE ( 'NONE', *, *, #33, .F. ) ;
#293 = DIRECTION ( 'NONE',  ( 0.0000000000000000000, 0.0000000000000000000, -1.000000000000000000 ) ) ;
#294 = DIRECTION ( 'NONE',  ( -1.000000000000000000, -0.0000000000000000000, -0.0000000000000000000 ) ) ;
#295 = VERTEX_POINT ( 'NONE', #181 ) ;
#296 = AXIS2_PLACEMENT_3D ( 'NONE', #81, #220, #319 ) ;
#297 = VERTEX_POINT ( 'NONE', #254 ) ;
#298 = VERTEX_POINT ( 'NONE', #285 ) ;
#299 = CIRCLE ( 'NONE', #115, 14.00000000000003000 ) ;
#300 = CARTESIAN_POINT ( 'NONE',  ( 177.8831740287930600, 0.0000000000000000000, -6.053013926203932400E-014 ) ) ;
#301 = CARTESIAN_POINT ( 'NONE',  ( 177.8831740287930600, 0.0000000000000000000, -6.053013926203932400E-014 ) ) ;
#302 = ORIENTED_EDGE ( 'NONE', *, *, #257, .T. ) ;
#303 = CARTESIAN_POINT ( 'NONE',  ( -185.2744740506581700, 0.0000000000000000000, 6.350000000000013900 ) ) ;
#304 = EDGE_LOOP ( 'NONE', ( #96, #184, #24 ) ) ;
#305 = SPHERICAL_SURFACE ( 'NONE', #240, 14.00000000000003600 ) ;
#306 = AXIS2_PLACEMENT_3D ( 'NONE', #138, #4, #191 ) ;
#307 = CARTESIAN_POINT ( 'NONE',  ( 150.0831740287930200, 0.0000000000000000000, -6.053013930451838600E-014 ) ) ;
#308 = CARTESIAN_POINT ( 'NONE',  ( 177.8831740287930600, 0.0000000000000000000, -6.053013926203932400E-014 ) ) ;
#309 = STYLED_ITEM ( 'NONE', ( #197 ), #64 ) ;
#310 = ORIENTED_EDGE ( 'NONE', *, *, #233, .T. ) ;
#311 = CIRCLE ( 'NONE', #112, 6.349999999999933900 ) ;
#312 = DIRECTION ( 'NONE',  ( -1.000000000000000000, -0.0000000000000000000, 2.142917091192668200E-016 ) ) ;
#313 = DIRECTION ( 'NONE',  ( 0.0000000000000000000, 0.0000000000000000000, -1.000000000000000000 ) ) ;
#314 = DIRECTION ( 'NONE',  ( 0.0000000000000000000, -1.224646799147353200E-016, 1.000000000000000000 ) ) ;
#315 = LINE ( 'NONE', #75, #209 ) ;
#316 = ORIENTED_EDGE ( 'NONE', *, *, #236, .T. ) ;
#317 = AXIS2_PLACEMENT_3D ( 'NONE', #188, #148, #314 ) ;
#318 = UNCERTAINTY_MEASURE_WITH_UNIT (LENGTH_MEASURE( 1.000000000000000100E-005 ), #149, 'distance_accuracy_value', 'NONE');
#319 = DIRECTION ( 'NONE',  ( 0.0000000000000000000, 0.0000000000000000000, -1.000000000000000000 ) ) ;
#320 = LINE ( 'NONE', #27, #139 ) ;
#321 = EDGE_LOOP ( 'NONE', ( #124, #12, #34, #292 ) ) ;
#322 =( NAMED_UNIT ( * ) PLANE_ANGLE_UNIT ( ) SI_UNIT ( $, .RADIAN. ) );
#323 = AXIS2_PLACEMENT_3D ( 'NONE', #263, #186, #164 ) ;
#324 = MECHANICAL_DESIGN_GEOMETRIC_PRESENTATION_REPRESENTATION (  '', ( #152 ), #62 ) ;
#325 = PRODUCT ( '145205', '145205', '', ( #288 ) ) ;
#326 = AXIS2_PLACEMENT_3D ( 'NONE', #338, #130, #291 ) ;
#327 = SPHERICAL_SURFACE ( 'NONE', #189, 14.00000000000003600 ) ;
#328 = SPHERICAL_SURFACE ( 'NONE', #296, 152.8000000000000100 ) ;
#329 = AXIS2_PLACEMENT_3D ( 'NONE', #208, #234, #341 ) ;
#330 = CIRCLE ( 'NONE', #326, 6.349999999999993400 ) ;
#331 = EDGE_CURVE ( 'NONE', #260, #40, #315, .T. ) ;
#332 = CARTESIAN_POINT ( 'NONE',  ( 167.0151763999513700, 0.0000000000000000000, 6.349999999999939200 ) ) ;
#333 = DIRECTION ( 'NONE',  ( -0.0000000000000000000, 1.000000000000000000, 1.224646799147353200E-016 ) ) ;
#334 = ORIENTED_EDGE ( 'NONE', *, *, #33, .T. ) ;
#335 = SURFACE_STYLE_USAGE ( .BOTH. , #68 ) ;
#336 = CARTESIAN_POINT ( 'NONE',  ( 150.0831740287930200, 0.0000000000000000000, -6.053013930451838600E-014 ) ) ;
#337 = CARTESIAN_POINT ( 'NONE',  ( -185.2744740506581700, 0.0000000000000000000, 2.052032605930108700E-014 ) ) ;
#338 = CARTESIAN_POINT ( 'NONE',  ( 165.4060950437100200, 0.0000000000000000000, -5.462761244684820000E-014 ) ) ;
#339 = DIRECTION ( 'NONE',  ( 0.0000000000000000000, -1.000000000000000000, 0.0000000000000000000 ) ) ;
#340 = EDGE_LOOP ( 'NONE', ( #87, #194, #281 ) ) ;
#341 = DIRECTION ( 'NONE',  ( 0.0000000000000000000, 0.0000000000000000000, 1.000000000000000000 ) ) ;
#342 = PRODUCT_DEFINITION ( 'Î´Öª', '', #39, #95 ) ;
#343 = DIRECTION ( 'NONE',  ( 0.0000000000000000000, -1.224646799147353200E-016, 1.000000000000000000 ) ) ;
#344 = DIRECTION ( 'NONE',  ( 0.0000000000000000000, 0.0000000000000000000, -1.000000000000000000 ) ) ;
#345 = ORIENTED_EDGE ( 'NONE', *, *, #53, .F. ) ;
#346 = CIRCLE ( 'NONE', #306, 6.349999999999991700 ) ;
#347 = DIRECTION ( 'NONE',  ( 0.0000000000000000000, 0.0000000000000000000, 1.000000000000000000 ) ) ;
ENDSEC;
END-ISO-10303-21;
