ISO-10303-21;
HEADER;
FILE_DESCRIPTION (( 'STEP AP214' ),
    '1' );
FILE_NAME ('145208.STEP',
    '2019-06-13T09:10:57',
    ( 'user' ),
    ( 'Î¢ÈíÖÐ¹ú' ),
    'SwSTEP 2.0',
    'SolidWorks 2016',
    '' );
FILE_SCHEMA (( 'AUTOMOTIVE_DESIGN' ));
ENDSEC;

DATA;
#1 = ORIENTED_EDGE ( 'NONE', *, *, #72, .F. ) ;
#2 = CIRCLE ( 'NONE', #211, 291.0999999999999700 ) ;
#3 = FILL_AREA_STYLE ('',( #41 ) ) ;
#4 = DIRECTION ( 'NONE',  ( -1.000000000000000000, -0.0000000000000000000, -0.0000000000000000000 ) ) ;
#5 = AXIS2_PLACEMENT_3D ( 'NONE', #62, #57, #92 ) ;
#6 = ORIENTED_EDGE ( 'NONE', *, *, #234, .T. ) ;
#7 = DIRECTION ( 'NONE',  ( -1.000000000000000000, -0.0000000000000000000, 2.161563980329653800E-016 ) ) ;
#8 = AXIS2_PLACEMENT_3D ( 'NONE', #294, #208, #29 ) ;
#9 = ORIENTED_EDGE ( 'NONE', *, *, #263, .T. ) ;
#10 = CIRCLE ( 'NONE', #322, 30.39999999999999100 ) ;
#11 = EDGE_LOOP ( 'NONE', ( #54, #312, #175 ) ) ;
#12 = ADVANCED_BREP_SHAPE_REPRESENTATION ( '145208', ( #227, #269, #314 ), #333 ) ;
#13 = ADVANCED_FACE ( 'NONE', ( #39 ), #74, .F. ) ;
#14 = CIRCLE ( 'NONE', #5, 24.40000000000001300 ) ;
#15 = AXIS2_PLACEMENT_3D ( 'NONE', #310, #7, #277 ) ;
#16 = CARTESIAN_POINT ( 'NONE',  ( 157.3885300714263500, 0.0000000000000000000, 6.350000000000021800 ) ) ;
#17 = VERTEX_POINT ( 'NONE', #148 ) ;
#18 = VERTEX_POINT ( 'NONE', #254 ) ;
#19 = CARTESIAN_POINT ( 'NONE',  ( 187.1179347072410100, 0.0000000000000000000, -6.053013926203873100E-014 ) ) ;
#20 =( GEOMETRIC_REPRESENTATION_CONTEXT ( 3 ) GLOBAL_UNCERTAINTY_ASSIGNED_CONTEXT ( ( #46 ) ) GLOBAL_UNIT_ASSIGNED_CONTEXT ( ( #70, #202, #158 ) ) REPRESENTATION_CONTEXT ( 'NONE', 'WORKASPACE' ) );
#21 = CARTESIAN_POINT ( 'NONE',  ( 154.3771685657517300, 7.776507174585664600E-016, -6.349999999999977400 ) ) ;
#22 =( LENGTH_UNIT ( ) NAMED_UNIT ( * ) SI_UNIT ( .MILLI., .METRE. ) );
#23 = ADVANCED_FACE ( 'NONE', ( #334 ), #52, .F. ) ;
#24 = DIRECTION ( 'NONE',  ( -1.000000000000000000, -0.0000000000000000000, 2.161563980329653800E-016 ) ) ;
#25 = CARTESIAN_POINT ( 'NONE',  ( 158.7179347072410000, 0.0000000000000000000, 1.782473416158972500E-014 ) ) ;
#26 = ORIENTED_EDGE ( 'NONE', *, *, #181, .T. ) ;
#27 = PRESENTATION_STYLE_ASSIGNMENT (( #51 ) ) ;
#28 = DIRECTION ( 'NONE',  ( 0.0000000000000000000, -1.224646799147353200E-016, 1.000000000000000000 ) ) ;
#29 = DIRECTION ( 'NONE',  ( 0.0000000000000000000, 0.0000000000000000000, 1.000000000000000000 ) ) ;
#30 = DIRECTION ( 'NONE',  ( 0.0000000000000000000, 0.0000000000000000000, 1.000000000000000000 ) ) ;
#31 = VERTEX_POINT ( 'NONE', #311 ) ;
#32 = CYLINDRICAL_SURFACE ( 'NONE', #161, 6.349999999999977400 ) ;
#33 = CIRCLE ( 'NONE', #90, 6.349999999999991700 ) ;
#34 = MECHANICAL_DESIGN_GEOMETRIC_PRESENTATION_REPRESENTATION (  '', ( #47 ), #20 ) ;
#35 = SURFACE_STYLE_USAGE ( .BOTH. , #247 ) ;
#36 = DIRECTION ( 'NONE',  ( -0.0000000000000000000, 1.000000000000000000, 1.224646799147353200E-016 ) ) ;
#37 = AXIS2_PLACEMENT_3D ( 'NONE', #121, #98, #108 ) ;
#38 = VERTEX_POINT ( 'NONE', #143 ) ;
#39 = FACE_OUTER_BOUND ( 'NONE', #183, .T. ) ;
#40 = DIRECTION ( 'NONE',  ( 0.0000000000000000000, 0.0000000000000000000, -1.000000000000000000 ) ) ;
#41 = FILL_AREA_STYLE_COLOUR ( '', #236 ) ;
#42 = DIRECTION ( 'NONE',  ( -0.0000000000000000000, 1.000000000000000000, 0.0000000000000000000 ) ) ;
#43 = CYLINDRICAL_SURFACE ( 'NONE', #280, 6.349999999999992500 ) ;
#44 = ORIENTED_EDGE ( 'NONE', *, *, #128, .F. ) ;
#45 = ADVANCED_FACE ( 'NONE', ( #84 ), #43, .T. ) ;
#46 = UNCERTAINTY_MEASURE_WITH_UNIT (LENGTH_MEASURE( 1.000000000000000100E-005 ), #70, 'distance_accuracy_value', 'NONE');
#47 = STYLED_ITEM ( 'NONE', ( #323 ), #269 ) ;
#48 = AXIS2_PLACEMENT_3D ( 'NONE', #102, #320, #303 ) ;
#49 = EDGE_LOOP ( 'NONE', ( #204, #9, #215 ) ) ;
#50 = LINE ( 'NONE', #243, #284 ) ;
#51 = SURFACE_STYLE_USAGE ( .BOTH. , #248 ) ;
#52 = SPHERICAL_SURFACE ( 'NONE', #170, 24.40000000000001300 ) ;
#53 = ORIENTED_EDGE ( 'NONE', *, *, #72, .T. ) ;
#54 = ORIENTED_EDGE ( 'NONE', *, *, #109, .F. ) ;
#55 = VECTOR ( 'NONE', #291, 1000.000000000000000 ) ;
#56 = LINE ( 'NONE', #125, #299 ) ;
#57 = DIRECTION ( 'NONE',  ( 2.647152409662923100E-032, 1.000000000000000000, 1.224646799147353200E-016 ) ) ;
#58 = AXIS2_PLACEMENT_3D ( 'NONE', #87, #152, #151 ) ;
#59 = FACE_OUTER_BOUND ( 'NONE', #104, .T. ) ;
#60 =( GEOMETRIC_REPRESENTATION_CONTEXT ( 3 ) GLOBAL_UNCERTAINTY_ASSIGNED_CONTEXT ( ( #207 ) ) GLOBAL_UNIT_ASSIGNED_CONTEXT ( ( #199, #205, #79 ) ) REPRESENTATION_CONTEXT ( 'NONE', 'WORKASPACE' ) );
#61 = ADVANCED_FACE ( 'NONE', ( #190 ), #149, .T. ) ;
#62 = CARTESIAN_POINT ( 'NONE',  ( 130.8179347072409900, 0.0000000000000000000, -6.053013926203919800E-014 ) ) ;
#63 = CARTESIAN_POINT ( 'NONE',  ( 158.6486676204507100, 0.0000000000000000000, 0.0000000000000000000 ) ) ;
#64 = DIRECTION ( 'NONE',  ( 0.0000000000000000000, 0.0000000000000000000, 1.000000000000000000 ) ) ;
#65 = CARTESIAN_POINT ( 'NONE',  ( 154.3771685657517300, 0.0000000000000000000, -5.289754959464211300E-014 ) ) ;
#66 = FACE_OUTER_BOUND ( 'NONE', #11, .T. ) ;
#67 = DIRECTION ( 'NONE',  ( -0.0000000000000000000, 1.000000000000000000, 0.0000000000000000000 ) ) ;
#68 = VERTEX_POINT ( 'NONE', #246 ) ;
#69 = EDGE_LOOP ( 'NONE', ( #44, #226, #86 ) ) ;
#70 =( LENGTH_UNIT ( ) NAMED_UNIT ( * ) SI_UNIT ( .MILLI., .METRE. ) );
#71 = CARTESIAN_POINT ( 'NONE',  ( 157.3885300714263500, 7.776507174585684300E-016, -6.350000000000045800 ) ) ;
#72 = EDGE_CURVE ( 'NONE', #184, #38, #77, .T. ) ;
#73 = CLOSED_SHELL ( 'NONE', ( #162, #45, #188, #23, #289, #13 ) ) ;
#74 = SPHERICAL_SURFACE ( 'NONE', #153, 30.40000000000000200 ) ;
#75 = PRESENTATION_LAYER_ASSIGNMENT (  '', '', ( #47 ) ) ;
#76 = DIRECTION ( 'NONE',  ( 0.0000000000000000000, -1.224646799147353500E-016, 1.000000000000000000 ) ) ;
#77 = CIRCLE ( 'NONE', #259, 6.350000000000015600 ) ;
#78 = ORIENTED_EDGE ( 'NONE', *, *, #234, .F. ) ;
#79 =( NAMED_UNIT ( * ) SI_UNIT ( $, .STERADIAN. ) SOLID_ANGLE_UNIT ( ) );
#80 = ADVANCED_FACE ( 'NONE', ( #66 ), #329, .T. ) ;
#81 = FACE_OUTER_BOUND ( 'NONE', #198, .T. ) ;
#82 = AXIS2_PLACEMENT_3D ( 'NONE', #212, #93, #132 ) ;
#83 = VERTEX_POINT ( 'NONE', #97 ) ;
#84 = FACE_OUTER_BOUND ( 'NONE', #283, .T. ) ;
#85 = ORIENTED_EDGE ( 'NONE', *, *, #317, .T. ) ;
#86 = ORIENTED_EDGE ( 'NONE', *, *, #300, .F. ) ;
#87 = CARTESIAN_POINT ( 'NONE',  ( 154.3771685657517300, 0.0000000000000000000, -5.289754959464211300E-014 ) ) ;
#88 = ADVANCED_FACE ( 'NONE', ( #274 ), #265, .T. ) ;
#89 = EDGE_LOOP ( 'NONE', ( #197, #347, #138 ) ) ;
#90 = AXIS2_PLACEMENT_3D ( 'NONE', #65, #24, #156 ) ;
#91 = DIRECTION ( 'NONE',  ( -1.000000000000000000, -0.0000000000000000000, -0.0000000000000000000 ) ) ;
#92 = DIRECTION ( 'NONE',  ( 0.0000000000000000000, -1.224646799147353200E-016, 1.000000000000000000 ) ) ;
#93 = DIRECTION ( 'NONE',  ( -1.000000000000000000, -0.0000000000000000000, -0.0000000000000000000 ) ) ;
#94 = AXIS2_PLACEMENT_3D ( 'NONE', #209, #155, #30 ) ;
#95 = DIRECTION ( 'NONE',  ( 0.0000000000000000000, 0.0000000000000000000, 1.000000000000000000 ) ) ;
#96 = VERTEX_POINT ( 'NONE', #186 ) ;
#97 = CARTESIAN_POINT ( 'NONE',  ( 158.6486676204507100, 7.776507174585640900E-016, -6.349999999999938400 ) ) ;
#98 = DIRECTION ( 'NONE',  ( -1.000000000000000000, -0.0000000000000000000, 2.161563980329653800E-016 ) ) ;
#99 = APPLICATION_CONTEXT ( 'automotive_design' ) ;
#100 = AXIS2_PLACEMENT_3D ( 'NONE', #228, #345, #293 ) ;
#101 = CIRCLE ( 'NONE', #48, 24.40000000000001300 ) ;
#102 = CARTESIAN_POINT ( 'NONE',  ( 130.8179347072409900, 0.0000000000000000000, -6.053013926203919800E-014 ) ) ;
#103 = EDGE_CURVE ( 'NONE', #83, #38, #276, .T. ) ;
#104 = EDGE_LOOP ( 'NONE', ( #187, #264, #129 ) ) ;
#105 = ORIENTED_EDGE ( 'NONE', *, *, #218, .F. ) ;
#106 = SPHERICAL_SURFACE ( 'NONE', #200, 24.40000000000001300 ) ;
#107 = CIRCLE ( 'NONE', #327, 291.0999999999999700 ) ;
#108 = DIRECTION ( 'NONE',  ( 0.0000000000000000000, 0.0000000000000000000, 1.000000000000000000 ) ) ;
#109 = EDGE_CURVE ( 'NONE', #192, #83, #2, .T. ) ;
#110 = ADVANCED_FACE ( 'NONE', ( #81 ), #256, .T. ) ;
#111 = CIRCLE ( 'NONE', #251, 30.40000000000000200 ) ;
#112 = DIRECTION ( 'NONE',  ( 0.0000000000000000000, 0.0000000000000000000, 1.000000000000000000 ) ) ;
#113 = CARTESIAN_POINT ( 'NONE',  ( 187.1179347072410100, 0.0000000000000000000, -6.053013926203873100E-014 ) ) ;
#114 = VERTEX_POINT ( 'NONE', #282 ) ;
#115 = ADVANCED_FACE ( 'NONE', ( #194 ), #32, .T. ) ;
#116 = ORIENTED_EDGE ( 'NONE', *, *, #286, .F. ) ;
#117 = UNCERTAINTY_MEASURE_WITH_UNIT (LENGTH_MEASURE( 1.000000000000000100E-005 ), #318, 'distance_accuracy_value', 'NONE');
#118 = EDGE_CURVE ( 'NONE', #83, #17, #133, .T. ) ;
#119 = CARTESIAN_POINT ( 'NONE',  ( 130.8179347072409900, 0.0000000000000000000, -6.053013926203919800E-014 ) ) ;
#120 = FILL_AREA_STYLE ('',( #130 ) ) ;
#121 = CARTESIAN_POINT ( 'NONE',  ( -185.2744740506581700, 0.0000000000000000000, 2.052032605930108700E-014 ) ) ;
#122 = CARTESIAN_POINT ( 'NONE',  ( 157.3885300714263500, 0.0000000000000000000, 0.0000000000000000000 ) ) ;
#123 = DIRECTION ( 'NONE',  ( -1.000000000000000000, -0.0000000000000000000, -0.0000000000000000000 ) ) ;
#124 = VERTEX_POINT ( 'NONE', #206 ) ;
#125 = CARTESIAN_POINT ( 'NONE',  ( 154.3771685657517300, 0.0000000000000000000, 6.349999999999977400 ) ) ;
#126 = DIRECTION ( 'NONE',  ( 0.0000000000000000000, 0.0000000000000000000, 1.000000000000000000 ) ) ;
#127 = CIRCLE ( 'NONE', #230, 6.350000000000015600 ) ;
#128 = EDGE_CURVE ( 'NONE', #192, #17, #107, .T. ) ;
#129 = ORIENTED_EDGE ( 'NONE', *, *, #286, .T. ) ;
#130 = FILL_AREA_STYLE_COLOUR ( '', #157 ) ;
#131 = ORIENTED_EDGE ( 'NONE', *, *, #103, .T. ) ;
#132 = DIRECTION ( 'NONE',  ( 0.0000000000000000000, 0.0000000000000000000, 1.000000000000000000 ) ) ;
#133 = CIRCLE ( 'NONE', #135, 6.349999999999938400 ) ;
#134 = ADVANCED_FACE ( 'NONE', ( #309 ), #304, .T. ) ;
#135 = AXIS2_PLACEMENT_3D ( 'NONE', #63, #91, #225 ) ;
#136 = ORIENTED_EDGE ( 'NONE', *, *, #223, .F. ) ;
#137 = FACE_OUTER_BOUND ( 'NONE', #160, .T. ) ;
#138 = ORIENTED_EDGE ( 'NONE', *, *, #241, .T. ) ;
#139 = DIRECTION ( 'NONE',  ( 0.0000000000000000000, 0.0000000000000000000, 1.000000000000000000 ) ) ;
#140 = PRESENTATION_STYLE_ASSIGNMENT (( #296 ) ) ;
#141 = EDGE_CURVE ( 'NONE', #18, #68, #33, .T. ) ;
#142 = ORIENTED_EDGE ( 'NONE', *, *, #218, .T. ) ;
#143 = CARTESIAN_POINT ( 'NONE',  ( 157.3885300714263500, 7.776507174585718800E-016, -6.350000000000082200 ) ) ;
#144 = FILL_AREA_STYLE ('',( #262 ) ) ;
#145 = DIRECTION ( 'NONE',  ( -1.000000000000000000, -0.0000000000000000000, -0.0000000000000000000 ) ) ;
#146 = EDGE_CURVE ( 'NONE', #96, #244, #279, .T. ) ;
#147 = CARTESIAN_POINT ( 'NONE',  ( -185.2744740506581700, 0.0000000000000000000, 2.052032605930108700E-014 ) ) ;
#148 = CARTESIAN_POINT ( 'NONE',  ( 158.6486676204507100, 0.0000000000000000000, 6.349999999999938400 ) ) ;
#149 = SPHERICAL_SURFACE ( 'NONE', #258, 291.0999999999999700 ) ;
#150 = DIRECTION ( 'NONE',  ( 0.0000000000000000000, 0.0000000000000000000, 1.000000000000000000 ) ) ;
#151 = DIRECTION ( 'NONE',  ( 0.0000000000000000000, 0.0000000000000000000, 1.000000000000000000 ) ) ;
#152 = DIRECTION ( 'NONE',  ( -1.000000000000000000, -0.0000000000000000000, 2.161563980329653800E-016 ) ) ;
#153 = AXIS2_PLACEMENT_3D ( 'NONE', #19, #42, #139 ) ;
#154 = ORIENTED_EDGE ( 'NONE', *, *, #241, .F. ) ;
#155 = DIRECTION ( 'NONE',  ( 0.0000000000000000000, 1.000000000000000000, 0.0000000000000000000 ) ) ;
#156 = DIRECTION ( 'NONE',  ( 0.0000000000000000000, 0.0000000000000000000, 1.000000000000000000 ) ) ;
#157 = COLOUR_RGB ( '',1.000000000000000000, 1.000000000000000000, 1.000000000000000000 ) ;
#158 =( NAMED_UNIT ( * ) SI_UNIT ( $, .STERADIAN. ) SOLID_ANGLE_UNIT ( ) );
#159 = DIRECTION ( 'NONE',  ( 1.000000000000000000, 0.0000000000000000000, 0.0000000000000000000 ) ) ;
#160 = EDGE_LOOP ( 'NONE', ( #78, #26, #339, #116 ) ) ;
#161 = AXIS2_PLACEMENT_3D ( 'NONE', #316, #253, #260 ) ;
#162 = ADVANCED_FACE ( 'NONE', ( #272 ), #237, .F. ) ;
#163 = EDGE_CURVE ( 'NONE', #244, #114, #111, .T. ) ;
#164 = DIRECTION ( 'NONE',  ( 0.0000000000000000000, 0.0000000000000000000, 1.000000000000000000 ) ) ;
#165 = EDGE_LOOP ( 'NONE', ( #235, #222, #214 ) ) ;
#166 = APPLICATION_PROTOCOL_DEFINITION ( 'draft international standard', 'automotive_design', 1998, #268 ) ;
#167 = CARTESIAN_POINT ( 'NONE',  ( -185.2744740506581700, 7.776507174585684300E-016, -6.349999999999972100 ) ) ;
#168 = CARTESIAN_POINT ( 'NONE',  ( 187.1179347072410100, 0.0000000000000000000, -6.053013926203873100E-014 ) ) ;
#169 = DIRECTION ( 'NONE',  ( -1.000000000000000000, -0.0000000000000000000, 2.161563980329653800E-016 ) ) ;
#170 = AXIS2_PLACEMENT_3D ( 'NONE', #119, #326, #173 ) ;
#171 = DIRECTION ( 'NONE',  ( 0.0000000000000000000, 0.0000000000000000000, 1.000000000000000000 ) ) ;
#172 = CARTESIAN_POINT ( 'NONE',  ( -132.3820652927589700, 0.0000000000000000000, 0.0000000000000000000 ) ) ;
#173 = DIRECTION ( 'NONE',  ( 0.0000000000000000000, 0.0000000000000000000, 1.000000000000000000 ) ) ;
#174 = DIRECTION ( 'NONE',  ( 0.0000000000000000000, 0.0000000000000000000, -1.000000000000000000 ) ) ;
#175 = ORIENTED_EDGE ( 'NONE', *, *, #118, .F. ) ;
#176 = DIRECTION ( 'NONE',  ( 0.0000000000000000000, 0.0000000000000000000, 1.000000000000000000 ) ) ;
#177 = CIRCLE ( 'NONE', #8, 6.349999999999938400 ) ;
#178 = DIRECTION ( 'NONE',  ( 0.0000000000000000000, -1.000000000000000000, 0.0000000000000000000 ) ) ;
#179 = DIRECTION ( 'NONE',  ( 0.0000000000000000000, -1.000000000000000000, 0.0000000000000000000 ) ) ;
#180 = CARTESIAN_POINT ( 'NONE',  ( 187.1179347072410100, 0.0000000000000000000, -6.053013926203873100E-014 ) ) ;
#181 = EDGE_CURVE ( 'NONE', #244, #96, #336, .T. ) ;
#182 = EDGE_CURVE ( 'NONE', #96, #114, #292, .T. ) ;
#183 = EDGE_LOOP ( 'NONE', ( #220, #219, #231 ) ) ;
#184 = VERTEX_POINT ( 'NONE', #16 ) ;
#185 = SURFACE_STYLE_FILL_AREA ( #144 ) ;
#186 = CARTESIAN_POINT ( 'NONE',  ( 157.3885300714263500, 0.0000000000000000000, 6.349999999999938400 ) ) ;
#187 = ORIENTED_EDGE ( 'NONE', *, *, #263, .F. ) ;
#188 = ADVANCED_FACE ( 'NONE', ( #59 ), #106, .F. ) ;
#189 = DIRECTION ( 'NONE',  ( 2.647152409662923100E-032, 1.000000000000000000, 1.224646799147353200E-016 ) ) ;
#190 = FACE_OUTER_BOUND ( 'NONE', #69, .T. ) ;
#191 = ORIENTED_EDGE ( 'NONE', *, *, #103, .F. ) ;
#192 = VERTEX_POINT ( 'NONE', #25 ) ;
#193 = CARTESIAN_POINT ( 'NONE',  ( 130.8179347072409900, 0.0000000000000000000, -6.053013926203919800E-014 ) ) ;
#194 = FACE_OUTER_BOUND ( 'NONE', #275, .T. ) ;
#195 = CARTESIAN_POINT ( 'NONE',  ( 157.3885300714263500, 0.0000000000000000000, -5.354847465088386900E-014 ) ) ;
#196 = AXIS2_PLACEMENT_3D ( 'NONE', #221, #178, #174 ) ;
#197 = ORIENTED_EDGE ( 'NONE', *, *, #317, .F. ) ;
#198 = EDGE_LOOP ( 'NONE', ( #53, #85, #154 ) ) ;
#199 =( LENGTH_UNIT ( ) NAMED_UNIT ( * ) SI_UNIT ( .MILLI., .METRE. ) );
#200 = AXIS2_PLACEMENT_3D ( 'NONE', #193, #67, #271 ) ;
#201 = CARTESIAN_POINT ( 'NONE',  ( 0.0000000000000000000, 0.0000000000000000000, 0.0000000000000000000 ) ) ;
#202 =( NAMED_UNIT ( * ) PLANE_ANGLE_UNIT ( ) SI_UNIT ( $, .RADIAN. ) );
#203 = CARTESIAN_POINT ( 'NONE',  ( -132.3820652927589700, 0.0000000000000000000, 0.0000000000000000000 ) ) ;
#204 = ORIENTED_EDGE ( 'NONE', *, *, #297, .F. ) ;
#205 =( NAMED_UNIT ( * ) PLANE_ANGLE_UNIT ( ) SI_UNIT ( $, .RADIAN. ) );
#206 = CARTESIAN_POINT ( 'NONE',  ( 156.7179347072410300, 0.0000000000000000000, -5.866867612733476200E-014 ) ) ;
#207 = UNCERTAINTY_MEASURE_WITH_UNIT (LENGTH_MEASURE( 1.000000000000000100E-005 ), #199, 'distance_accuracy_value', 'NONE');
#208 = DIRECTION ( 'NONE',  ( -1.000000000000000000, -0.0000000000000000000, -0.0000000000000000000 ) ) ;
#209 = CARTESIAN_POINT ( 'NONE',  ( 187.1179347072410100, 0.0000000000000000000, -6.053013926203873100E-014 ) ) ;
#210 = COLOUR_RGB ( '',1.000000000000000000, 1.000000000000000000, 1.000000000000000000 ) ;
#211 = AXIS2_PLACEMENT_3D ( 'NONE', #203, #36, #242 ) ;
#212 = CARTESIAN_POINT ( 'NONE',  ( 154.3771685657517300, 0.0000000000000000000, 0.0000000000000000000 ) ) ;
#213 =( NAMED_UNIT ( * ) SI_UNIT ( $, .STERADIAN. ) SOLID_ANGLE_UNIT ( ) );
#214 = ORIENTED_EDGE ( 'NONE', *, *, #182, .F. ) ;
#215 = ORIENTED_EDGE ( 'NONE', *, *, #141, .T. ) ;
#216 = AXIS2_PLACEMENT_3D ( 'NONE', #172, #346, #150 ) ;
#217 = DIRECTION ( 'NONE',  ( -1.000000000000000000, -0.0000000000000000000, 2.161563980329653800E-016 ) ) ;
#218 = EDGE_CURVE ( 'NONE', #17, #184, #56, .T. ) ;
#219 = ORIENTED_EDGE ( 'NONE', *, *, #146, .F. ) ;
#220 = ORIENTED_EDGE ( 'NONE', *, *, #163, .F. ) ;
#221 = CARTESIAN_POINT ( 'NONE',  ( 187.1179347072410100, 0.0000000000000000000, -6.053013926203873100E-014 ) ) ;
#222 = ORIENTED_EDGE ( 'NONE', *, *, #163, .T. ) ;
#223 = EDGE_CURVE ( 'NONE', #96, #18, #50, .T. ) ;
#224 = DIRECTION ( 'NONE',  ( -1.000000000000000000, -0.0000000000000000000, 2.161563980329653800E-016 ) ) ;
#225 = DIRECTION ( 'NONE',  ( 0.0000000000000000000, 0.0000000000000000000, 1.000000000000000000 ) ) ;
#226 = ORIENTED_EDGE ( 'NONE', *, *, #109, .T. ) ;
#227 = MANIFOLD_SOLID_BREP ( 'Ðý×ª1', #73 ) ;
#228 = CARTESIAN_POINT ( 'NONE',  ( 187.1179347072410100, 0.0000000000000000000, -6.053013926203873100E-014 ) ) ;
#229 = DIRECTION ( 'NONE',  ( -1.000000000000000000, -0.0000000000000000000, 2.161563980329653800E-016 ) ) ;
#230 = AXIS2_PLACEMENT_3D ( 'NONE', #288, #145, #112 ) ;
#231 = ORIENTED_EDGE ( 'NONE', *, *, #182, .T. ) ;
#232 = UNCERTAINTY_MEASURE_WITH_UNIT (LENGTH_MEASURE( 1.000000000000000100E-005 ), #22, 'distance_accuracy_value', 'NONE');
#233 = PRODUCT_DEFINITION_CONTEXT ( 'detailed design', #99, 'design' ) ;
#234 = EDGE_CURVE ( 'NONE', #244, #68, #308, .T. ) ;
#235 = ORIENTED_EDGE ( 'NONE', *, *, #181, .F. ) ;
#236 = COLOUR_RGB ( '',1.000000000000000000, 1.000000000000000000, 1.000000000000000000 ) ;
#237 = SPHERICAL_SURFACE ( 'NONE', #335, 30.40000000000000200 ) ;
#238 = CIRCLE ( 'NONE', #100, 30.39999999999999100 ) ;
#239 =( NAMED_UNIT ( * ) SI_UNIT ( $, .STERADIAN. ) SOLID_ANGLE_UNIT ( ) );
#240 = CARTESIAN_POINT ( 'NONE',  ( 187.1179347072410100, 0.0000000000000000000, -6.053013926203873100E-014 ) ) ;
#241 = EDGE_CURVE ( 'NONE', #184, #124, #238, .T. ) ;
#242 = DIRECTION ( 'NONE',  ( 0.0000000000000000000, -1.224646799147353200E-016, 1.000000000000000000 ) ) ;
#243 = CARTESIAN_POINT ( 'NONE',  ( -185.2744740506581700, 0.0000000000000000000, 6.350000000000013900 ) ) ;
#244 = VERTEX_POINT ( 'NONE', #71 ) ;
#245 = AXIS2_PLACEMENT_3D ( 'NONE', #240, #331, #176 ) ;
#246 = CARTESIAN_POINT ( 'NONE',  ( 154.3771685657517300, 7.776507174585750300E-016, -6.350000000000112400 ) ) ;
#247 = SURFACE_SIDE_STYLE ('',( #261 ) ) ;
#248 = SURFACE_SIDE_STYLE ('',( #341 ) ) ;
#249 = DIRECTION ( 'NONE',  ( 0.0000000000000000000, 1.000000000000000000, 0.0000000000000000000 ) ) ;
#250 = ORIENTED_EDGE ( 'NONE', *, *, #313, .F. ) ;
#251 = AXIS2_PLACEMENT_3D ( 'NONE', #180, #189, #28 ) ;
#252 = PRODUCT_DEFINITION_SHAPE ( 'NONE', 'NONE',  #306 ) ;
#253 = DIRECTION ( 'NONE',  ( -1.000000000000000000, -0.0000000000000000000, -0.0000000000000000000 ) ) ;
#254 = CARTESIAN_POINT ( 'NONE',  ( 154.3771685657517300, 0.0000000000000000000, 6.349999999999992500 ) ) ;
#255 =( GEOMETRIC_REPRESENTATION_CONTEXT ( 3 ) GLOBAL_UNCERTAINTY_ASSIGNED_CONTEXT ( ( #117 ) ) GLOBAL_UNIT_ASSIGNED_CONTEXT ( ( #318, #337, #213 ) ) REPRESENTATION_CONTEXT ( 'NONE', 'WORKASPACE' ) );
#256 = SPHERICAL_SURFACE ( 'NONE', #94, 30.39999999999999100 ) ;
#257 = PRODUCT ( '145208', '145208', '', ( #338 ) ) ;
#258 = AXIS2_PLACEMENT_3D ( 'NONE', #315, #249, #126 ) ;
#259 = AXIS2_PLACEMENT_3D ( 'NONE', #122, #4, #95 ) ;
#260 = DIRECTION ( 'NONE',  ( 0.0000000000000000000, 0.0000000000000000000, 1.000000000000000000 ) ) ;
#261 = SURFACE_STYLE_FILL_AREA ( #3 ) ;
#262 = FILL_AREA_STYLE_COLOUR ( '', #210 ) ;
#263 = EDGE_CURVE ( 'NONE', #31, #18, #101, .T. ) ;
#264 = ORIENTED_EDGE ( 'NONE', *, *, #297, .T. ) ;
#265 = CYLINDRICAL_SURFACE ( 'NONE', #82, 6.349999999999977400 ) ;
#266 = DIRECTION ( 'NONE',  ( 0.0000000000000000000, 0.0000000000000000000, 1.000000000000000000 ) ) ;
#267 = DIRECTION ( 'NONE',  ( -0.0000000000000000000, 1.000000000000000000, 1.224646799147353200E-016 ) ) ;
#268 = APPLICATION_CONTEXT ( 'automotive_design' ) ;
#269 = MANIFOLD_SOLID_BREP ( 'Ðý×ª3', #307 ) ;
#270 = SURFACE_SIDE_STYLE ('',( #185 ) ) ;
#271 = DIRECTION ( 'NONE',  ( 0.0000000000000000000, 0.0000000000000000000, 1.000000000000000000 ) ) ;
#272 = FACE_OUTER_BOUND ( 'NONE', #165, .T. ) ;
#273 = AXIS2_PLACEMENT_3D ( 'NONE', #195, #217, #266 ) ;
#274 = FACE_OUTER_BOUND ( 'NONE', #290, .T. ) ;
#275 = EDGE_LOOP ( 'NONE', ( #191, #325, #142, #250 ) ) ;
#276 = LINE ( 'NONE', #21, #55 ) ;
#277 = DIRECTION ( 'NONE',  ( 0.0000000000000000000, 0.0000000000000000000, 1.000000000000000000 ) ) ;
#278 = STYLED_ITEM ( 'NONE', ( #27 ), #227 ) ;
#279 = CIRCLE ( 'NONE', #15, 6.349999999999991700 ) ;
#280 = AXIS2_PLACEMENT_3D ( 'NONE', #147, #224, #171 ) ;
#281 = VECTOR ( 'NONE', #229, 1000.000000000000000 ) ;
#282 = CARTESIAN_POINT ( 'NONE',  ( 156.7179347072410000, 0.0000000000000000000, -5.209752162713261000E-014 ) ) ;
#283 = EDGE_LOOP ( 'NONE', ( #302, #6, #330, #136 ) ) ;
#284 = VECTOR ( 'NONE', #169, 1000.000000000000000 ) ;
#285 = CIRCLE ( 'NONE', #58, 6.349999999999991700 ) ;
#286 = EDGE_CURVE ( 'NONE', #68, #18, #285, .T. ) ;
#287 = PRODUCT_DEFINITION_FORMATION_WITH_SPECIFIED_SOURCE ( 'ÈÎºÎ', '', #257, .NOT_KNOWN. ) ;
#288 = CARTESIAN_POINT ( 'NONE',  ( 157.3885300714263500, 0.0000000000000000000, 0.0000000000000000000 ) ) ;
#289 = ADVANCED_FACE ( 'NONE', ( #137 ), #328, .T. ) ;
#290 = EDGE_LOOP ( 'NONE', ( #319, #131, #1, #105 ) ) ;
#291 = DIRECTION ( 'NONE',  ( -1.000000000000000000, -0.0000000000000000000, -0.0000000000000000000 ) ) ;
#292 = CIRCLE ( 'NONE', #196, 30.40000000000000200 ) ;
#293 = DIRECTION ( 'NONE',  ( 0.0000000000000000000, 0.0000000000000000000, -1.000000000000000000 ) ) ;
#294 = CARTESIAN_POINT ( 'NONE',  ( 158.6486676204507100, 0.0000000000000000000, 0.0000000000000000000 ) ) ;
#295 = APPLICATION_PROTOCOL_DEFINITION ( 'draft international standard', 'automotive_design', 1998, #99 ) ;
#296 = SURFACE_STYLE_USAGE ( .BOTH. , #270 ) ;
#297 = EDGE_CURVE ( 'NONE', #31, #68, #14, .T. ) ;
#298 = PRODUCT_RELATED_PRODUCT_CATEGORY ( 'part', '', ( #257 ) ) ;
#299 = VECTOR ( 'NONE', #123, 1000.000000000000000 ) ;
#300 = EDGE_CURVE ( 'NONE', #17, #83, #177, .T. ) ;
#301 = DIRECTION ( 'NONE',  ( -0.0000000000000000000, 1.000000000000000000, 0.0000000000000000000 ) ) ;
#302 = ORIENTED_EDGE ( 'NONE', *, *, #146, .T. ) ;
#303 = DIRECTION ( 'NONE',  ( 0.0000000000000000000, 0.0000000000000000000, -1.000000000000000000 ) ) ;
#304 = SPHERICAL_SURFACE ( 'NONE', #245, 30.39999999999999100 ) ;
#305 = PRESENTATION_LAYER_ASSIGNMENT (  '', '', ( #278 ) ) ;
#306 = PRODUCT_DEFINITION ( 'Î´Öª', '', #287, #233 ) ;
#307 = CLOSED_SHELL ( 'NONE', ( #61, #88, #110, #134, #115, #80 ) ) ;
#308 = LINE ( 'NONE', #167, #281 ) ;
#309 = FACE_OUTER_BOUND ( 'NONE', #89, .T. ) ;
#310 = CARTESIAN_POINT ( 'NONE',  ( 157.3885300714263500, 0.0000000000000000000, -5.354847465088386900E-014 ) ) ;
#311 = CARTESIAN_POINT ( 'NONE',  ( 155.2179347072410000, 0.0000000000000000000, -6.431028627908377100E-014 ) ) ;
#312 = ORIENTED_EDGE ( 'NONE', *, *, #128, .T. ) ;
#313 = EDGE_CURVE ( 'NONE', #38, #184, #127, .T. ) ;
#314 = AXIS2_PLACEMENT_3D ( 'NONE', #201, #64, #159 ) ;
#315 = CARTESIAN_POINT ( 'NONE',  ( -132.3820652927589700, 0.0000000000000000000, 0.0000000000000000000 ) ) ;
#316 = CARTESIAN_POINT ( 'NONE',  ( 154.3771685657517300, 0.0000000000000000000, 0.0000000000000000000 ) ) ;
#317 = EDGE_CURVE ( 'NONE', #38, #124, #10, .T. ) ;
#318 =( LENGTH_UNIT ( ) NAMED_UNIT ( * ) SI_UNIT ( .MILLI., .METRE. ) );
#319 = ORIENTED_EDGE ( 'NONE', *, *, #300, .T. ) ;
#320 = DIRECTION ( 'NONE',  ( 0.0000000000000000000, -1.000000000000000000, 0.0000000000000000000 ) ) ;
#321 = CARTESIAN_POINT ( 'NONE',  ( -132.3820652927589700, 0.0000000000000000000, 0.0000000000000000000 ) ) ;
#322 = AXIS2_PLACEMENT_3D ( 'NONE', #113, #267, #76 ) ;
#323 = PRESENTATION_STYLE_ASSIGNMENT (( #35 ) ) ;
#324 = MECHANICAL_DESIGN_GEOMETRIC_PRESENTATION_REPRESENTATION (  '', ( #344 ), #255 ) ;
#325 = ORIENTED_EDGE ( 'NONE', *, *, #118, .T. ) ;
#326 = DIRECTION ( 'NONE',  ( -0.0000000000000000000, 1.000000000000000000, 0.0000000000000000000 ) ) ;
#327 = AXIS2_PLACEMENT_3D ( 'NONE', #321, #179, #40 ) ;
#328 = CYLINDRICAL_SURFACE ( 'NONE', #37, 6.349999999999992500 ) ;
#329 = SPHERICAL_SURFACE ( 'NONE', #216, 291.0999999999999700 ) ;
#330 = ORIENTED_EDGE ( 'NONE', *, *, #141, .F. ) ;
#331 = DIRECTION ( 'NONE',  ( 0.0000000000000000000, 1.000000000000000000, 0.0000000000000000000 ) ) ;
#332 = SHAPE_DEFINITION_REPRESENTATION ( #252, #12 ) ;
#333 =( GEOMETRIC_REPRESENTATION_CONTEXT ( 3 ) GLOBAL_UNCERTAINTY_ASSIGNED_CONTEXT ( ( #232 ) ) GLOBAL_UNIT_ASSIGNED_CONTEXT ( ( #22, #342, #239 ) ) REPRESENTATION_CONTEXT ( 'NONE', 'WORKASPACE' ) );
#334 = FACE_OUTER_BOUND ( 'NONE', #49, .T. ) ;
#335 = AXIS2_PLACEMENT_3D ( 'NONE', #168, #301, #164 ) ;
#336 = CIRCLE ( 'NONE', #273, 6.349999999999991700 ) ;
#337 =( NAMED_UNIT ( * ) PLANE_ANGLE_UNIT ( ) SI_UNIT ( $, .RADIAN. ) );
#338 = PRODUCT_CONTEXT ( 'NONE', #268, 'mechanical' ) ;
#339 = ORIENTED_EDGE ( 'NONE', *, *, #223, .T. ) ;
#340 = PRESENTATION_LAYER_ASSIGNMENT (  '', '', ( #344 ) ) ;
#341 = SURFACE_STYLE_FILL_AREA ( #120 ) ;
#342 =( NAMED_UNIT ( * ) PLANE_ANGLE_UNIT ( ) SI_UNIT ( $, .RADIAN. ) );
#343 = MECHANICAL_DESIGN_GEOMETRIC_PRESENTATION_REPRESENTATION (  '', ( #278 ), #60 ) ;
#344 = STYLED_ITEM ( 'NONE', ( #140 ), #12 ) ;
#345 = DIRECTION ( 'NONE',  ( 0.0000000000000000000, -1.000000000000000000, 0.0000000000000000000 ) ) ;
#346 = DIRECTION ( 'NONE',  ( 0.0000000000000000000, 1.000000000000000000, 0.0000000000000000000 ) ) ;
#347 = ORIENTED_EDGE ( 'NONE', *, *, #313, .T. ) ;
ENDSEC;
END-ISO-10303-21;
