ISO-10303-21;
HEADER;
FILE_DESCRIPTION (( 'STEP AP214' ),
    '1' );
FILE_NAME ('145210.STEP',
    '2019-06-14T01:30:29',
    ( 'user' ),
    ( 'Î¢ÈíÖÐ¹ú' ),
    'SwSTEP 2.0',
    'SolidWorks 2016',
    '' );
FILE_SCHEMA (( 'AUTOMOTIVE_DESIGN' ));
ENDSEC;

DATA;
#1 = SPHERICAL_SURFACE ( 'NONE', #89, 1330.500000000000000 ) ;
#2 = AXIS2_PLACEMENT_3D ( 'NONE', #71, #312, #286 ) ;
#3 = AXIS2_PLACEMENT_3D ( 'NONE', #137, #302, #12 ) ;
#4 = EDGE_CURVE ( 'NONE', #103, #222, #118, .T. ) ;
#5 = SPHERICAL_SURFACE ( 'NONE', #3, 27.05000000000000400 ) ;
#6 = ADVANCED_FACE ( 'NONE', ( #269 ), #189, .T. ) ;
#7 = ORIENTED_EDGE ( 'NONE', *, *, #98, .T. ) ;
#8 =( LENGTH_UNIT ( ) NAMED_UNIT ( * ) SI_UNIT ( .MILLI., .METRE. ) );
#9 = CIRCLE ( 'NONE', #35, 1330.500000000000000 ) ;
#10 = DIRECTION ( 'NONE',  ( 0.0000000000000000000, -1.000000000000000000, 0.0000000000000000000 ) ) ;
#11 = ORIENTED_EDGE ( 'NONE', *, *, #206, .F. ) ;
#12 = DIRECTION ( 'NONE',  ( 0.0000000000000000000, 0.0000000000000000000, 1.000000000000000000 ) ) ;
#13 = PRODUCT_RELATED_PRODUCT_CATEGORY ( 'part', '', ( #60 ) ) ;
#14 = FILL_AREA_STYLE_COLOUR ( '', #305 ) ;
#15 = DIRECTION ( 'NONE',  ( -1.000000000000000000, -0.0000000000000000000, -0.0000000000000000000 ) ) ;
#16 = VERTEX_POINT ( 'NONE', #242 ) ;
#17 = CARTESIAN_POINT ( 'NONE',  ( -1174.071208685347500, 0.0000000000000000000, 0.0000000000000000000 ) ) ;
#18 = CARTESIAN_POINT ( 'NONE',  ( 147.2621013867509400, 0.0000000000000000000, -5.161973699746575100E-014 ) ) ;
#19 = CIRCLE ( 'NONE', #329, 12.69999999999999000 ) ;
#20 = DIRECTION ( 'NONE',  ( -0.0000000000000000000, 1.000000000000000000, 1.224646799147353200E-016 ) ) ;
#21 = DIRECTION ( 'NONE',  ( 0.0000000000000000000, 0.0000000000000000000, 1.000000000000000000 ) ) ;
#22 = AXIS2_PLACEMENT_3D ( 'NONE', #119, #285, #173 ) ;
#23 = CARTESIAN_POINT ( 'NONE',  ( 154.8968114151613800, 0.0000000000000000000, -5.327600131108356400E-014 ) ) ;
#24 = EDGE_LOOP ( 'NONE', ( #100, #164, #289, #264 ) ) ;
#25 =( GEOMETRIC_REPRESENTATION_CONTEXT ( 3 ) GLOBAL_UNCERTAINTY_ASSIGNED_CONTEXT ( ( #197 ) ) GLOBAL_UNIT_ASSIGNED_CONTEXT ( ( #325, #301, #111 ) ) REPRESENTATION_CONTEXT ( 'NONE', 'WORKASPACE' ) );
#26 = EDGE_CURVE ( 'NONE', #104, #256, #323, .T. ) ;
#27 = DIRECTION ( 'NONE',  ( -1.000000000000000000, -0.0000000000000000000, 2.169387321135302500E-016 ) ) ;
#28 = SPHERICAL_SURFACE ( 'NONE', #282, 33.90999999999999700 ) ;
#29 = FACE_OUTER_BOUND ( 'NONE', #147, .T. ) ;
#30 = EDGE_LOOP ( 'NONE', ( #135, #37, #253 ) ) ;
#31 = CIRCLE ( 'NONE', #249, 33.90999999999999700 ) ;
#32 = UNCERTAINTY_MEASURE_WITH_UNIT (LENGTH_MEASURE( 1.000000000000000100E-005 ), #304, 'distance_accuracy_value', 'NONE');
#33 = SURFACE_SIDE_STYLE ('',( #108 ) ) ;
#34 = CARTESIAN_POINT ( 'NONE',  ( -1174.071208685347500, 0.0000000000000000000, 0.0000000000000000000 ) ) ;
#35 = AXIS2_PLACEMENT_3D ( 'NONE', #17, #174, #335 ) ;
#36 = DIRECTION ( 'NONE',  ( 0.0000000000000000000, 0.0000000000000000000, 1.000000000000000000 ) ) ;
#37 = ORIENTED_EDGE ( 'NONE', *, *, #93, .T. ) ;
#38 = EDGE_CURVE ( 'NONE', #90, #337, #48, .T. ) ;
#39 = DIRECTION ( 'NONE',  ( -1.000000000000000000, -0.0000000000000000000, -0.0000000000000000000 ) ) ;
#40 = PRESENTATION_STYLE_ASSIGNMENT (( #196 ) ) ;
#41 = LINE ( 'NONE', #101, #251 ) ;
#42 = DIRECTION ( 'NONE',  ( 2.656733238939199400E-032, 1.000000000000000000, 1.224646799147353200E-016 ) ) ;
#43 = DIRECTION ( 'NONE',  ( -1.000000000000000000, -0.0000000000000000000, -0.0000000000000000000 ) ) ;
#44 = DIRECTION ( 'NONE',  ( 0.0000000000000000000, -1.000000000000000000, 0.0000000000000000000 ) ) ;
#45 = ORIENTED_EDGE ( 'NONE', *, *, #107, .T. ) ;
#46 = EDGE_CURVE ( 'NONE', #90, #201, #195, .T. ) ;
#47 = DIRECTION ( 'NONE',  ( 2.656733238939199400E-032, 1.000000000000000000, 1.224646799147353200E-016 ) ) ;
#48 = LINE ( 'NONE', #154, #109 ) ;
#49 = DIRECTION ( 'NONE',  ( -1.000000000000000000, -0.0000000000000000000, -0.0000000000000000000 ) ) ;
#50 = SURFACE_STYLE_FILL_AREA ( #231 ) ;
#51 = ORIENTED_EDGE ( 'NONE', *, *, #64, .F. ) ;
#52 = UNCERTAINTY_MEASURE_WITH_UNIT (LENGTH_MEASURE( 1.000000000000000100E-005 ), #306, 'distance_accuracy_value', 'NONE');
#53 = AXIS2_PLACEMENT_3D ( 'NONE', #178, #309, #94 ) ;
#54 = STYLED_ITEM ( 'NONE', ( #40 ), #319 ) ;
#55 = EDGE_CURVE ( 'NONE', #283, #62, #41, .T. ) ;
#56 = ADVANCED_FACE ( 'NONE', ( #318 ), #310, .T. ) ;
#57 = ORIENTED_EDGE ( 'NONE', *, *, #224, .T. ) ;
#58 = APPLICATION_PROTOCOL_DEFINITION ( 'draft international standard', 'automotive_design', 1998, #252 ) ;
#59 = APPLICATION_CONTEXT ( 'automotive_design' ) ;
#60 = PRODUCT ( '145210', '145210', '', ( #85 ) ) ;
#61 = SPHERICAL_SURFACE ( 'NONE', #125, 27.05000000000000400 ) ;
#62 = VERTEX_POINT ( 'NONE', #126 ) ;
#63 = CARTESIAN_POINT ( 'NONE',  ( 147.2621013867509400, 1.555301434917137200E-015, -12.70000000000005400 ) ) ;
#64 = EDGE_CURVE ( 'NONE', #256, #222, #102, .T. ) ;
#65 = CARTESIAN_POINT ( 'NONE',  ( -185.2744740506581700, 0.0000000000000000000, 2.052032605930108700E-014 ) ) ;
#66 = CIRCLE ( 'NONE', #315, 33.90999999999999700 ) ;
#67 = CARTESIAN_POINT ( 'NONE',  ( 154.8968114151614100, 0.0000000000000000000, 12.69999999999988900 ) ) ;
#68 = EDGE_LOOP ( 'NONE', ( #205, #218, #347 ) ) ;
#69 = CARTESIAN_POINT ( 'NONE',  ( 152.4287913146524700, 0.0000000000000000000, -5.109735819359961200E-014 ) ) ;
#70 = EDGE_CURVE ( 'NONE', #283, #90, #176, .T. ) ;
#71 = CARTESIAN_POINT ( 'NONE',  ( 186.3387913146524700, 0.0000000000000000000, -6.053013924752375300E-014 ) ) ;
#72 = FACE_OUTER_BOUND ( 'NONE', #123, .T. ) ;
#73 = DIRECTION ( 'NONE',  ( 0.0000000000000000000, 0.0000000000000000000, -1.000000000000000000 ) ) ;
#74 = AXIS2_PLACEMENT_3D ( 'NONE', #233, #39, #204 ) ;
#75 = CARTESIAN_POINT ( 'NONE',  ( 186.3387913146524700, 0.0000000000000000000, -6.053013924752375300E-014 ) ) ;
#76 = DIRECTION ( 'NONE',  ( -1.000000000000000000, -0.0000000000000000000, 2.169387321135302500E-016 ) ) ;
#77 = PRESENTATION_LAYER_ASSIGNMENT (  '', '', ( #54 ) ) ;
#78 = EDGE_LOOP ( 'NONE', ( #295, #7, #114 ) ) ;
#79 = EDGE_CURVE ( 'NONE', #90, #283, #162, .T. ) ;
#80 = CIRCLE ( 'NONE', #22, 1330.500000000000000 ) ;
#81 = ORIENTED_EDGE ( 'NONE', *, *, #55, .F. ) ;
#82 = EDGE_CURVE ( 'NONE', #283, #201, #31, .T. ) ;
#83 = ORIENTED_EDGE ( 'NONE', *, *, #186, .T. ) ;
#84 = ADVANCED_FACE ( 'NONE', ( #95 ), #28, .F. ) ;
#85 = PRODUCT_CONTEXT ( 'NONE', #59, 'mechanical' ) ;
#86 = CIRCLE ( 'NONE', #278, 12.69999999999999000 ) ;
#87 = APPLICATION_PROTOCOL_DEFINITION ( 'draft international standard', 'automotive_design', 1998, #59 ) ;
#88 = ORIENTED_EDGE ( 'NONE', *, *, #143, .T. ) ;
#89 = AXIS2_PLACEMENT_3D ( 'NONE', #234, #208, #144 ) ;
#90 = VERTEX_POINT ( 'NONE', #342 ) ;
#91 = CARTESIAN_POINT ( 'NONE',  ( 147.2621013867509400, 1.555301434917127600E-015, -12.69999999999990900 ) ) ;
#92 = MECHANICAL_DESIGN_GEOMETRIC_PRESENTATION_REPRESENTATION (  '', ( #54 ), #254 ) ;
#93 = EDGE_CURVE ( 'NONE', #142, #62, #260, .T. ) ;
#94 = DIRECTION ( 'NONE',  ( 0.0000000000000000000, 0.0000000000000000000, 1.000000000000000000 ) ) ;
#95 = FACE_OUTER_BOUND ( 'NONE', #131, .T. ) ;
#96 = CARTESIAN_POINT ( 'NONE',  ( 123.3787913146524700, 0.0000000000000000000, -6.053013924752370300E-014 ) ) ;
#97 = DIRECTION ( 'NONE',  ( 0.0000000000000000000, 0.0000000000000000000, 1.000000000000000000 ) ) ;
#98 = EDGE_CURVE ( 'NONE', #103, #221, #299, .T. ) ;
#99 = SPHERICAL_SURFACE ( 'NONE', #294, 1330.500000000000000 ) ;
#100 = ORIENTED_EDGE ( 'NONE', *, *, #224, .F. ) ;
#101 = CARTESIAN_POINT ( 'NONE',  ( -185.2744740506581700, 0.0000000000000000000, 12.70000000000001400 ) ) ;
#102 = LINE ( 'NONE', #151, #244 ) ;
#103 = VERTEX_POINT ( 'NONE', #121 ) ;
#104 = VERTEX_POINT ( 'NONE', #180 ) ;
#105 = AXIS2_PLACEMENT_3D ( 'NONE', #203, #15, #172 ) ;
#106 = ADVANCED_FACE ( 'NONE', ( #235 ), #226, .T. ) ;
#107 = EDGE_CURVE ( 'NONE', #142, #337, #291, .T. ) ;
#108 = SURFACE_STYLE_FILL_AREA ( #225 ) ;
#109 = VECTOR ( 'NONE', #27, 1000.000000000000000 ) ;
#110 = DIRECTION ( 'NONE',  ( 0.0000000000000000000, 0.0000000000000000000, 1.000000000000000000 ) ) ;
#111 =( NAMED_UNIT ( * ) SI_UNIT ( $, .STERADIAN. ) SOLID_ANGLE_UNIT ( ) );
#112 = FILL_AREA_STYLE_COLOUR ( '', #188 ) ;
#113 =( NAMED_UNIT ( * ) PLANE_ANGLE_UNIT ( ) SI_UNIT ( $, .RADIAN. ) );
#114 = ORIENTED_EDGE ( 'NONE', *, *, #333, .F. ) ;
#115 = AXIS2_PLACEMENT_3D ( 'NONE', #317, #49, #187 ) ;
#116 =( NAMED_UNIT ( * ) PLANE_ANGLE_UNIT ( ) SI_UNIT ( $, .RADIAN. ) );
#117 = FILL_AREA_STYLE_COLOUR ( '', #199 ) ;
#118 = CIRCLE ( 'NONE', #115, 12.69999999999987700 ) ;
#119 = CARTESIAN_POINT ( 'NONE',  ( -1174.071208685347500, 0.0000000000000000000, 0.0000000000000000000 ) ) ;
#120 = DIRECTION ( 'NONE',  ( 0.0000000000000000000, 0.0000000000000000000, 1.000000000000000000 ) ) ;
#121 = CARTESIAN_POINT ( 'NONE',  ( 154.8968114151614100, 1.555301434917125000E-015, -12.69999999999995000 ) ) ;
#122 = FACE_OUTER_BOUND ( 'NONE', #68, .T. ) ;
#123 = EDGE_LOOP ( 'NONE', ( #314, #240, #11 ) ) ;
#124 = CARTESIAN_POINT ( 'NONE',  ( 154.8968114151613800, 0.0000000000000000000, -5.327600131108356400E-014 ) ) ;
#125 = AXIS2_PLACEMENT_3D ( 'NONE', #259, #334, #141 ) ;
#126 = CARTESIAN_POINT ( 'NONE',  ( 147.2621013867509400, 0.0000000000000000000, 12.69999999999993700 ) ) ;
#127 = EDGE_CURVE ( 'NONE', #62, #337, #86, .T. ) ;
#128 = EDGE_LOOP ( 'NONE', ( #152, #45, #88 ) ) ;
#129 = DIRECTION ( 'NONE',  ( 0.0000000000000000000, 0.0000000000000000000, 1.000000000000000000 ) ) ;
#130 = CIRCLE ( 'NONE', #105, 12.69999999999987700 ) ;
#131 = EDGE_LOOP ( 'NONE', ( #170, #292, #341 ) ) ;
#132 = AXIS2_PLACEMENT_3D ( 'NONE', #241, #47, #216 ) ;
#133 = ADVANCED_FACE ( 'NONE', ( #155 ), #146, .T. ) ;
#134 = FACE_OUTER_BOUND ( 'NONE', #30, .T. ) ;
#135 = ORIENTED_EDGE ( 'NONE', *, *, #107, .F. ) ;
#136 = SPHERICAL_SURFACE ( 'NONE', #229, 33.90999999999999700 ) ;
#137 = CARTESIAN_POINT ( 'NONE',  ( 123.3787913146524700, 0.0000000000000000000, -6.053013924752370300E-014 ) ) ;
#138 = SURFACE_STYLE_USAGE ( .BOTH. , #330 ) ;
#139 = STYLED_ITEM ( 'NONE', ( #327 ), #246 ) ;
#140 = SURFACE_STYLE_USAGE ( .BOTH. , #331 ) ;
#141 = DIRECTION ( 'NONE',  ( 0.0000000000000000000, 0.0000000000000000000, 1.000000000000000000 ) ) ;
#142 = VERTEX_POINT ( 'NONE', #261 ) ;
#143 = EDGE_CURVE ( 'NONE', #337, #62, #19, .T. ) ;
#144 = DIRECTION ( 'NONE',  ( 0.0000000000000000000, 0.0000000000000000000, 1.000000000000000000 ) ) ;
#145 = CARTESIAN_POINT ( 'NONE',  ( 147.2621013867509400, 0.0000000000000000000, -5.161973699746575100E-014 ) ) ;
#146 = SPHERICAL_SURFACE ( 'NONE', #2, 33.90999999999999700 ) ;
#147 = EDGE_LOOP ( 'NONE', ( #177, #83, #321 ) ) ;
#148 = DIRECTION ( 'NONE',  ( 0.0000000000000000000, 0.0000000000000000000, 1.000000000000000000 ) ) ;
#149 = CARTESIAN_POINT ( 'NONE',  ( 147.2621013867509400, 0.0000000000000000000, 0.0000000000000000000 ) ) ;
#150 = AXIS2_PLACEMENT_3D ( 'NONE', #185, #346, #153 ) ;
#151 = CARTESIAN_POINT ( 'NONE',  ( 147.2621013867509400, 0.0000000000000000000, 12.69999999999990900 ) ) ;
#152 = ORIENTED_EDGE ( 'NONE', *, *, #93, .F. ) ;
#153 = DIRECTION ( 'NONE',  ( 0.0000000000000000000, 0.0000000000000000000, 1.000000000000000000 ) ) ;
#154 = CARTESIAN_POINT ( 'NONE',  ( -185.2744740506581700, 1.555301434917137800E-015, -12.69999999999997100 ) ) ;
#155 = FACE_OUTER_BOUND ( 'NONE', #78, .T. ) ;
#156 = ORIENTED_EDGE ( 'NONE', *, *, #143, .F. ) ;
#157 = PRESENTATION_LAYER_ASSIGNMENT (  '', '', ( #139 ) ) ;
#158 = PRESENTATION_STYLE_ASSIGNMENT (( #138 ) ) ;
#159 = ORIENTED_EDGE ( 'NONE', *, *, #38, .T. ) ;
#160 = EDGE_CURVE ( 'NONE', #16, #104, #80, .T. ) ;
#161 = ADVANCED_FACE ( 'NONE', ( #287 ), #220, .T. ) ;
#162 = CIRCLE ( 'NONE', #193, 12.69999999999999200 ) ;
#163 =( NAMED_UNIT ( * ) PLANE_ANGLE_UNIT ( ) SI_UNIT ( $, .RADIAN. ) );
#164 = ORIENTED_EDGE ( 'NONE', *, *, #26, .T. ) ;
#165 = DIRECTION ( 'NONE',  ( 0.0000000000000000000, 0.0000000000000000000, -1.000000000000000000 ) ) ;
#166 = UNCERTAINTY_MEASURE_WITH_UNIT (LENGTH_MEASURE( 1.000000000000000100E-005 ), #8, 'distance_accuracy_value', 'NONE');
#167 = DIRECTION ( 'NONE',  ( 0.0000000000000000000, 1.000000000000000000, 0.0000000000000000000 ) ) ;
#168 = FILL_AREA_STYLE ('',( #14 ) ) ;
#169 = FACE_OUTER_BOUND ( 'NONE', #300, .T. ) ;
#170 = ORIENTED_EDGE ( 'NONE', *, *, #79, .F. ) ;
#171 = AXIS2_PLACEMENT_3D ( 'NONE', #219, #290, #129 ) ;
#172 = DIRECTION ( 'NONE',  ( 0.0000000000000000000, 0.0000000000000000000, 1.000000000000000000 ) ) ;
#173 = DIRECTION ( 'NONE',  ( 0.0000000000000000000, -1.224646799147353200E-016, 1.000000000000000000 ) ) ;
#174 = DIRECTION ( 'NONE',  ( 0.0000000000000000000, -1.000000000000000000, 0.0000000000000000000 ) ) ;
#175 = DIRECTION ( 'NONE',  ( -1.000000000000000000, -0.0000000000000000000, 2.169387321135302500E-016 ) ) ;
#176 = CIRCLE ( 'NONE', #215, 12.69999999999999200 ) ;
#177 = ORIENTED_EDGE ( 'NONE', *, *, #160, .F. ) ;
#178 = CARTESIAN_POINT ( 'NONE',  ( 186.3387913146524700, 0.0000000000000000000, -6.053013924752375300E-014 ) ) ;
#179 = DIRECTION ( 'NONE',  ( 0.0000000000000000000, -1.224646799147353200E-016, 1.000000000000000000 ) ) ;
#180 = CARTESIAN_POINT ( 'NONE',  ( 156.3681773822778200, 1.555301434917131300E-015, -12.69999999999994100 ) ) ;
#181 = CLOSED_SHELL ( 'NONE', ( #84, #274, #223, #322, #56, #250 ) ) ;
#182 = DIRECTION ( 'NONE',  ( -1.000000000000000000, -0.0000000000000000000, 2.169387321135302500E-016 ) ) ;
#183 = MECHANICAL_DESIGN_GEOMETRIC_PRESENTATION_REPRESENTATION (  '', ( #139 ), #192 ) ;
#184 = DIRECTION ( 'NONE',  ( -1.000000000000000000, -0.0000000000000000000, -0.0000000000000000000 ) ) ;
#185 = CARTESIAN_POINT ( 'NONE',  ( 156.3681773822778200, 0.0000000000000000000, 0.0000000000000000000 ) ) ;
#186 = EDGE_CURVE ( 'NONE', #16, #256, #9, .T. ) ;
#187 = DIRECTION ( 'NONE',  ( 0.0000000000000000000, 0.0000000000000000000, 1.000000000000000000 ) ) ;
#188 = COLOUR_RGB ( '',1.000000000000000000, 1.000000000000000000, 1.000000000000000000 ) ;
#189 = CYLINDRICAL_SURFACE ( 'NONE', #171, 12.69999999999990900 ) ;
#190 = PRODUCT_DEFINITION_SHAPE ( 'NONE', 'NONE',  #320 ) ;
#191 = EDGE_LOOP ( 'NONE', ( #273, #247, #212, #156 ) ) ;
#192 =( GEOMETRIC_REPRESENTATION_CONTEXT ( 3 ) GLOBAL_UNCERTAINTY_ASSIGNED_CONTEXT ( ( #52 ) ) GLOBAL_UNIT_ASSIGNED_CONTEXT ( ( #306, #116, #280 ) ) REPRESENTATION_CONTEXT ( 'NONE', 'WORKASPACE' ) );
#193 = AXIS2_PLACEMENT_3D ( 'NONE', #124, #288, #97 ) ;
#194 = ADVANCED_FACE ( 'NONE', ( #72 ), #1, .T. ) ;
#195 = CIRCLE ( 'NONE', #132, 33.90999999999999700 ) ;
#196 = SURFACE_STYLE_USAGE ( .BOTH. , #33 ) ;
#197 = UNCERTAINTY_MEASURE_WITH_UNIT (LENGTH_MEASURE( 1.000000000000000100E-005 ), #325, 'distance_accuracy_value', 'NONE');
#198 = CARTESIAN_POINT ( 'NONE',  ( 186.3387913146524700, 0.0000000000000000000, -6.053013924752375300E-014 ) ) ;
#199 = COLOUR_RGB ( '',1.000000000000000000, 1.000000000000000000, 1.000000000000000000 ) ;
#200 = CARTESIAN_POINT ( 'NONE',  ( 154.8968114151613800, 0.0000000000000000000, 12.69999999999993900 ) ) ;
#201 = VERTEX_POINT ( 'NONE', #69 ) ;
#202 = CARTESIAN_POINT ( 'NONE',  ( 156.3681773822778200, 0.0000000000000000000, 12.69999999999994100 ) ) ;
#203 = CARTESIAN_POINT ( 'NONE',  ( 154.8968114151614100, 0.0000000000000000000, 0.0000000000000000000 ) ) ;
#204 = DIRECTION ( 'NONE',  ( 0.0000000000000000000, 0.0000000000000000000, 1.000000000000000000 ) ) ;
#205 = ORIENTED_EDGE ( 'NONE', *, *, #46, .F. ) ;
#206 = EDGE_CURVE ( 'NONE', #256, #104, #211, .T. ) ;
#207 = EDGE_LOOP ( 'NONE', ( #236, #277, #232 ) ) ;
#208 = DIRECTION ( 'NONE',  ( 0.0000000000000000000, 1.000000000000000000, 0.0000000000000000000 ) ) ;
#209 = DIRECTION ( 'NONE',  ( 0.0000000000000000000, -1.224646799147353200E-016, 1.000000000000000000 ) ) ;
#210 = CARTESIAN_POINT ( 'NONE',  ( 186.3387913146524700, 0.0000000000000000000, -6.053013924752375300E-014 ) ) ;
#211 = CIRCLE ( 'NONE', #74, 12.69999999999994100 ) ;
#212 = ORIENTED_EDGE ( 'NONE', *, *, #55, .T. ) ;
#213 = DIRECTION ( 'NONE',  ( 0.0000000000000000000, 0.0000000000000000000, -1.000000000000000000 ) ) ;
#214 = STYLED_ITEM ( 'NONE', ( #158 ), #262 ) ;
#215 = AXIS2_PLACEMENT_3D ( 'NONE', #23, #182, #344 ) ;
#216 = DIRECTION ( 'NONE',  ( 0.0000000000000000000, -1.224646799147353200E-016, 1.000000000000000000 ) ) ;
#217 = CYLINDRICAL_SURFACE ( 'NONE', #332, 12.69999999999999200 ) ;
#218 = ORIENTED_EDGE ( 'NONE', *, *, #70, .F. ) ;
#219 = CARTESIAN_POINT ( 'NONE',  ( 147.2621013867509400, 0.0000000000000000000, 0.0000000000000000000 ) ) ;
#220 = SPHERICAL_SURFACE ( 'NONE', #53, 33.90999999999999700 ) ;
#221 = VERTEX_POINT ( 'NONE', #284 ) ;
#222 = VERTEX_POINT ( 'NONE', #67 ) ;
#223 = ADVANCED_FACE ( 'NONE', ( #276 ), #61, .F. ) ;
#224 = EDGE_CURVE ( 'NONE', #104, #103, #340, .T. ) ;
#225 = FILL_AREA_STYLE ('',( #112 ) ) ;
#226 = CYLINDRICAL_SURFACE ( 'NONE', #313, 12.69999999999990900 ) ;
#227 = EDGE_LOOP ( 'NONE', ( #271, #57, #307, #51 ) ) ;
#228 = DIRECTION ( 'NONE',  ( 0.0000000000000000000, 0.0000000000000000000, 1.000000000000000000 ) ) ;
#229 = AXIS2_PLACEMENT_3D ( 'NONE', #308, #257, #228 ) ;
#230 = AXIS2_PLACEMENT_3D ( 'NONE', #316, #345, #268 ) ;
#231 = FILL_AREA_STYLE ('',( #117 ) ) ;
#232 = ORIENTED_EDGE ( 'NONE', *, *, #333, .T. ) ;
#233 = CARTESIAN_POINT ( 'NONE',  ( 156.3681773822778200, 0.0000000000000000000, 0.0000000000000000000 ) ) ;
#234 = CARTESIAN_POINT ( 'NONE',  ( -1174.071208685347500, 0.0000000000000000000, 0.0000000000000000000 ) ) ;
#235 = FACE_OUTER_BOUND ( 'NONE', #24, .T. ) ;
#236 = ORIENTED_EDGE ( 'NONE', *, *, #98, .F. ) ;
#237 = CARTESIAN_POINT ( 'NONE',  ( 123.3787913146524700, 0.0000000000000000000, -6.053013924752370300E-014 ) ) ;
#238 = CARTESIAN_POINT ( 'NONE',  ( 186.3387913146524700, 0.0000000000000000000, -6.053013924752375300E-014 ) ) ;
#239 = SURFACE_STYLE_FILL_AREA ( #168 ) ;
#240 = ORIENTED_EDGE ( 'NONE', *, *, #160, .T. ) ;
#241 = CARTESIAN_POINT ( 'NONE',  ( 186.3387913146524700, 0.0000000000000000000, -6.053013924752375300E-014 ) ) ;
#242 = CARTESIAN_POINT ( 'NONE',  ( 156.4287913146524700, 0.0000000000000000000, 8.146962831327766500E-014 ) ) ;
#243 = EDGE_CURVE ( 'NONE', #222, #103, #130, .T. ) ;
#244 = VECTOR ( 'NONE', #184, 1000.000000000000000 ) ;
#245 = CLOSED_SHELL ( 'NONE', ( #194, #6, #133, #161, #106, #297 ) ) ;
#246 = MANIFOLD_SOLID_BREP ( 'Ðý×ª1', #181 ) ;
#247 = ORIENTED_EDGE ( 'NONE', *, *, #79, .T. ) ;
#248 = PRESENTATION_LAYER_ASSIGNMENT (  '', '', ( #214 ) ) ;
#249 = AXIS2_PLACEMENT_3D ( 'NONE', #238, #44, #213 ) ;
#250 = ADVANCED_FACE ( 'NONE', ( #122 ), #136, .F. ) ;
#251 = VECTOR ( 'NONE', #76, 1000.000000000000000 ) ;
#252 = APPLICATION_CONTEXT ( 'automotive_design' ) ;
#253 = ORIENTED_EDGE ( 'NONE', *, *, #127, .T. ) ;
#254 =( GEOMETRIC_REPRESENTATION_CONTEXT ( 3 ) GLOBAL_UNCERTAINTY_ASSIGNED_CONTEXT ( ( #166 ) ) GLOBAL_UNIT_ASSIGNED_CONTEXT ( ( #8, #163, #324 ) ) REPRESENTATION_CONTEXT ( 'NONE', 'WORKASPACE' ) );
#255 = DIRECTION ( 'NONE',  ( -1.000000000000000000, -0.0000000000000000000, 2.169387321135302500E-016 ) ) ;
#256 = VERTEX_POINT ( 'NONE', #202 ) ;
#257 = DIRECTION ( 'NONE',  ( -0.0000000000000000000, 1.000000000000000000, 0.0000000000000000000 ) ) ;
#258 = DIRECTION ( 'NONE',  ( -1.000000000000000000, -0.0000000000000000000, -0.0000000000000000000 ) ) ;
#259 = CARTESIAN_POINT ( 'NONE',  ( 123.3787913146524700, 0.0000000000000000000, -6.053013924752370300E-014 ) ) ;
#260 = CIRCLE ( 'NONE', #267, 27.05000000000000400 ) ;
#261 = CARTESIAN_POINT ( 'NONE',  ( 150.4287913146524700, 0.0000000000000000000, -6.474199715534790200E-014 ) ) ;
#262 = MANIFOLD_SOLID_BREP ( 'Ðý×ª3', #245 ) ;
#263 = DIRECTION ( 'NONE',  ( 0.0000000000000000000, -1.000000000000000000, 0.0000000000000000000 ) ) ;
#264 = ORIENTED_EDGE ( 'NONE', *, *, #4, .F. ) ;
#265 = DIRECTION ( 'NONE',  ( -0.0000000000000000000, 1.000000000000000000, 0.0000000000000000000 ) ) ;
#266 = MECHANICAL_DESIGN_GEOMETRIC_PRESENTATION_REPRESENTATION (  '', ( #214 ), #281 ) ;
#267 = AXIS2_PLACEMENT_3D ( 'NONE', #96, #263, #73 ) ;
#268 = DIRECTION ( 'NONE',  ( 0.0000000000000000000, 0.0000000000000000000, 1.000000000000000000 ) ) ;
#269 = FACE_OUTER_BOUND ( 'NONE', #227, .T. ) ;
#270 = VECTOR ( 'NONE', #258, 1000.000000000000000 ) ;
#271 = ORIENTED_EDGE ( 'NONE', *, *, #206, .T. ) ;
#272 = SHAPE_DEFINITION_REPRESENTATION ( #190, #319 ) ;
#273 = ORIENTED_EDGE ( 'NONE', *, *, #38, .F. ) ;
#274 = ADVANCED_FACE ( 'NONE', ( #169 ), #217, .T. ) ;
#275 = DIRECTION ( 'NONE',  ( 1.000000000000000000, 0.0000000000000000000, 0.0000000000000000000 ) ) ;
#276 = FACE_OUTER_BOUND ( 'NONE', #128, .T. ) ;
#277 = ORIENTED_EDGE ( 'NONE', *, *, #4, .T. ) ;
#278 = AXIS2_PLACEMENT_3D ( 'NONE', #145, #311, #120 ) ;
#279 =( NAMED_UNIT ( * ) SI_UNIT ( $, .STERADIAN. ) SOLID_ANGLE_UNIT ( ) );
#280 =( NAMED_UNIT ( * ) SI_UNIT ( $, .STERADIAN. ) SOLID_ANGLE_UNIT ( ) );
#281 =( GEOMETRIC_REPRESENTATION_CONTEXT ( 3 ) GLOBAL_UNCERTAINTY_ASSIGNED_CONTEXT ( ( #32 ) ) GLOBAL_UNIT_ASSIGNED_CONTEXT ( ( #304, #113, #279 ) ) REPRESENTATION_CONTEXT ( 'NONE', 'WORKASPACE' ) );
#282 = AXIS2_PLACEMENT_3D ( 'NONE', #75, #265, #21 ) ;
#283 = VERTEX_POINT ( 'NONE', #200 ) ;
#284 = CARTESIAN_POINT ( 'NONE',  ( 152.4287913146524700, 0.0000000000000000000, -5.845375059956942700E-014 ) ) ;
#285 = DIRECTION ( 'NONE',  ( -0.0000000000000000000, 1.000000000000000000, 1.224646799147353200E-016 ) ) ;
#286 = DIRECTION ( 'NONE',  ( 0.0000000000000000000, 0.0000000000000000000, 1.000000000000000000 ) ) ;
#287 = FACE_OUTER_BOUND ( 'NONE', #207, .T. ) ;
#288 = DIRECTION ( 'NONE',  ( -1.000000000000000000, -0.0000000000000000000, 2.169387321135302500E-016 ) ) ;
#289 = ORIENTED_EDGE ( 'NONE', *, *, #64, .T. ) ;
#290 = DIRECTION ( 'NONE',  ( -1.000000000000000000, -0.0000000000000000000, -0.0000000000000000000 ) ) ;
#291 = CIRCLE ( 'NONE', #293, 27.05000000000000400 ) ;
#292 = ORIENTED_EDGE ( 'NONE', *, *, #46, .T. ) ;
#293 = AXIS2_PLACEMENT_3D ( 'NONE', #237, #42, #209 ) ;
#294 = AXIS2_PLACEMENT_3D ( 'NONE', #34, #167, #326 ) ;
#295 = ORIENTED_EDGE ( 'NONE', *, *, #243, .T. ) ;
#296 = AXIS2_PLACEMENT_3D ( 'NONE', #210, #20, #179 ) ;
#297 = ADVANCED_FACE ( 'NONE', ( #29 ), #99, .T. ) ;
#298 = CARTESIAN_POINT ( 'NONE',  ( 0.0000000000000000000, 0.0000000000000000000, 0.0000000000000000000 ) ) ;
#299 = CIRCLE ( 'NONE', #296, 33.90999999999999700 ) ;
#300 = EDGE_LOOP ( 'NONE', ( #336, #159, #328, #81 ) ) ;
#301 =( NAMED_UNIT ( * ) PLANE_ANGLE_UNIT ( ) SI_UNIT ( $, .RADIAN. ) );
#302 = DIRECTION ( 'NONE',  ( -0.0000000000000000000, 1.000000000000000000, 0.0000000000000000000 ) ) ;
#303 = AXIS2_PLACEMENT_3D ( 'NONE', #298, #110, #275 ) ;
#304 =( LENGTH_UNIT ( ) NAMED_UNIT ( * ) SI_UNIT ( .MILLI., .METRE. ) );
#305 = COLOUR_RGB ( '',1.000000000000000000, 1.000000000000000000, 1.000000000000000000 ) ;
#306 =( LENGTH_UNIT ( ) NAMED_UNIT ( * ) SI_UNIT ( .MILLI., .METRE. ) );
#307 = ORIENTED_EDGE ( 'NONE', *, *, #243, .F. ) ;
#308 = CARTESIAN_POINT ( 'NONE',  ( 186.3387913146524700, 0.0000000000000000000, -6.053013924752375300E-014 ) ) ;
#309 = DIRECTION ( 'NONE',  ( 0.0000000000000000000, 1.000000000000000000, 0.0000000000000000000 ) ) ;
#310 = CYLINDRICAL_SURFACE ( 'NONE', #230, 12.69999999999999200 ) ;
#311 = DIRECTION ( 'NONE',  ( -1.000000000000000000, -0.0000000000000000000, 2.169387321135302500E-016 ) ) ;
#312 = DIRECTION ( 'NONE',  ( 0.0000000000000000000, 1.000000000000000000, 0.0000000000000000000 ) ) ;
#313 = AXIS2_PLACEMENT_3D ( 'NONE', #149, #43, #148 ) ;
#314 = ORIENTED_EDGE ( 'NONE', *, *, #186, .F. ) ;
#315 = AXIS2_PLACEMENT_3D ( 'NONE', #198, #10, #165 ) ;
#316 = CARTESIAN_POINT ( 'NONE',  ( -185.2744740506581700, 0.0000000000000000000, 2.052032605930108700E-014 ) ) ;
#317 = CARTESIAN_POINT ( 'NONE',  ( 154.8968114151614100, 0.0000000000000000000, 0.0000000000000000000 ) ) ;
#318 = FACE_OUTER_BOUND ( 'NONE', #191, .T. ) ;
#319 = ADVANCED_BREP_SHAPE_REPRESENTATION ( '145210', ( #246, #262, #303 ), #25 ) ;
#320 = PRODUCT_DEFINITION ( 'Î´Öª', '', #343, #339 ) ;
#321 = ORIENTED_EDGE ( 'NONE', *, *, #26, .F. ) ;
#322 = ADVANCED_FACE ( 'NONE', ( #134 ), #5, .F. ) ;
#323 = CIRCLE ( 'NONE', #150, 12.69999999999994100 ) ;
#324 =( NAMED_UNIT ( * ) SI_UNIT ( $, .STERADIAN. ) SOLID_ANGLE_UNIT ( ) );
#325 =( LENGTH_UNIT ( ) NAMED_UNIT ( * ) SI_UNIT ( .MILLI., .METRE. ) );
#326 = DIRECTION ( 'NONE',  ( 0.0000000000000000000, 0.0000000000000000000, 1.000000000000000000 ) ) ;
#327 = PRESENTATION_STYLE_ASSIGNMENT (( #140 ) ) ;
#328 = ORIENTED_EDGE ( 'NONE', *, *, #127, .F. ) ;
#329 = AXIS2_PLACEMENT_3D ( 'NONE', #18, #175, #338 ) ;
#330 = SURFACE_SIDE_STYLE ('',( #239 ) ) ;
#331 = SURFACE_SIDE_STYLE ('',( #50 ) ) ;
#332 = AXIS2_PLACEMENT_3D ( 'NONE', #65, #255, #36 ) ;
#333 = EDGE_CURVE ( 'NONE', #222, #221, #66, .T. ) ;
#334 = DIRECTION ( 'NONE',  ( -0.0000000000000000000, 1.000000000000000000, 0.0000000000000000000 ) ) ;
#335 = DIRECTION ( 'NONE',  ( 0.0000000000000000000, 0.0000000000000000000, -1.000000000000000000 ) ) ;
#336 = ORIENTED_EDGE ( 'NONE', *, *, #70, .T. ) ;
#337 = VERTEX_POINT ( 'NONE', #63 ) ;
#338 = DIRECTION ( 'NONE',  ( 0.0000000000000000000, 0.0000000000000000000, 1.000000000000000000 ) ) ;
#339 = PRODUCT_DEFINITION_CONTEXT ( 'detailed design', #252, 'design' ) ;
#340 = LINE ( 'NONE', #91, #270 ) ;
#341 = ORIENTED_EDGE ( 'NONE', *, *, #82, .F. ) ;
#342 = CARTESIAN_POINT ( 'NONE',  ( 154.8968114151613800, 1.555301434917138000E-015, -12.70000000000004700 ) ) ;
#343 = PRODUCT_DEFINITION_FORMATION_WITH_SPECIFIED_SOURCE ( 'ÈÎºÎ', '', #60, .NOT_KNOWN. ) ;
#344 = DIRECTION ( 'NONE',  ( 0.0000000000000000000, 0.0000000000000000000, 1.000000000000000000 ) ) ;
#345 = DIRECTION ( 'NONE',  ( -1.000000000000000000, -0.0000000000000000000, 2.169387321135302500E-016 ) ) ;
#346 = DIRECTION ( 'NONE',  ( -1.000000000000000000, -0.0000000000000000000, -0.0000000000000000000 ) ) ;
#347 = ORIENTED_EDGE ( 'NONE', *, *, #82, .T. ) ;
ENDSEC;
END-ISO-10303-21;
