ISO-10303-21;
HEADER;
FILE_DESCRIPTION (( 'STEP AP203' ),
    '1' );
FILE_NAME ('145269.STEP',
    '2021-05-26T07:41:07',
    ( '' ),
    ( '' ),
    'SwSTEP 2.0',
    'SolidWorks 2020',
    '' );
FILE_SCHEMA (( 'CONFIG_CONTROL_DESIGN' ));
ENDSEC;

DATA;
#1 =( NAMED_UNIT ( * ) PLANE_ANGLE_UNIT ( ) SI_UNIT ( $, .RADIAN. ) );
#2 = ORIENTED_EDGE ( 'NONE', *, *, #93, .F. ) ;
#3 = CARTESIAN_POINT ( 'NONE',  ( 7.389557128714869805, 3.402785144330299519E-14, 0.000000000000000000 ) ) ;
#4 = CARTESIAN_POINT ( 'NONE',  ( 7.389557128714932865, -19.99999999999999289, 0.000000000000000000 ) ) ;
#5 = CARTESIAN_POINT ( 'NONE',  ( 8.242661702345333907, -20.00000000000106226, 0.000000000000000000 ) ) ;
#6 = ORIENTED_EDGE ( 'NONE', *, *, #173, .F. ) ;
#7 = CARTESIAN_POINT ( 'NONE',  ( 7.389557128714908885, 0.1060308276877931499, -19.99971893461455252 ) ) ;
#8 = CARTESIAN_POINT ( 'NONE',  ( 8.242661702345206010, 20.00000000000113687, 2.449293598294841014E-15 ) ) ;
#9 = DIRECTION ( 'NONE',  ( 0.000000000000000000, 0.000000000000000000, 1.000000000000000000 ) ) ;
#10 = PERSON ( 'Î´Ö¸¶¨', 'Î´Ö¸¶¨', 'Î´Ö¸¶¨', ('Î´Ö¸¶¨'), ('Î´Ö¸¶¨'), ('Î´Ö¸¶¨') ) ;
#11 = DIRECTION ( 'NONE',  ( -1.000000000000000000, -1.110758249368559885E-15, 0.000000000000000000 ) ) ;
#12 = EDGE_CURVE ( 'NONE', #205, #304, #141, .T. ) ;
#13 = CARTESIAN_POINT ( 'NONE',  ( 9.095766275975670112, 3.949462823928459517E-14, 0.000000000000000000 ) ) ;
#14 = DIRECTION ( 'NONE',  ( -0.9999897081435960011, 0.004536916010437280593, 0.000000000000000000 ) ) ;
#15 = ORIENTED_EDGE ( 'NONE', *, *, #327, .T. ) ;
#16 = FACE_OUTER_BOUND ( 'NONE', #48, .T. ) ;
#17 = LOCAL_TIME ( 15, 41, 7.000000000000000000, #54 ) ;
#18 = EDGE_LOOP ( 'NONE', ( #198, #267, #28 ) ) ;
#19 = CC_DESIGN_PERSON_AND_ORGANIZATION_ASSIGNMENT ( #120, #155, ( #241 ) ) ;
#20 = AXIS2_PLACEMENT_3D ( 'NONE', #167, #162, #290 ) ;
#21 = APPROVAL_PERSON_ORGANIZATION ( #123, #303, #185 ) ;
#22 = CALENDAR_DATE ( 2021, 26, 5 ) ;
#23 = EDGE_CURVE ( 'NONE', #283, #37, #53, .T. ) ;
#24 = AXIS2_PLACEMENT_3D ( 'NONE', #112, #234, #361 ) ;
#25 = CIRCLE ( 'NONE', #51, 20.00000000000120082 ) ;
#26 = DATE_TIME_ROLE ( 'classification_date' ) ;
#27 = COORDINATED_UNIVERSAL_TIME_OFFSET ( 8, 0, .AHEAD. ) ;
#28 = ORIENTED_EDGE ( 'NONE', *, *, #178, .T. ) ;
#29 = CARTESIAN_POINT ( 'NONE',  ( 8.242661702345269958, 3.676123984129379833E-14, 0.000000000000000000 ) ) ;
#30 = APPROVAL_DATE_TIME ( #187, #303 ) ;
#31 = ORIENTED_EDGE ( 'NONE', *, *, #391, .T. ) ;
#32 = CARTESIAN_POINT ( 'NONE',  ( 9.095766275975670112, 3.949462823928459517E-14, 0.000000000000000000 ) ) ;
#33 = CLOSED_SHELL ( 'NONE', ( #154, #291, #371, #396, #183, #213 ) ) ;
#34 = CIRCLE ( 'NONE', #395, 30.75999999999999801 ) ;
#35 = DIRECTION ( 'NONE',  ( 0.000000000000000000, 0.000000000000000000, 1.000000000000000000 ) ) ;
#36 = DIRECTION ( 'NONE',  ( -1.000000000000000000, -1.110758249368559885E-15, 0.000000000000000000 ) ) ;
#37 = VERTEX_POINT ( 'NONE', #332 ) ;
#38 = DIRECTION ( 'NONE',  ( -0.9999897081435937807, 0.004536916010911569604, 0.000000000000000000 ) ) ;
#39 = DIRECTION ( 'NONE',  ( -1.000000000000000000, -3.219646771412780418E-15, 0.000000000000000000 ) ) ;
#40 = DIRECTION ( 'NONE',  ( 0.000000000000000000, 0.000000000000000000, 1.000000000000000000 ) ) ;
#41 = EDGE_LOOP ( 'NONE', ( #98, #256, #31, #394, #192, #6 ) ) ;
#42 = CARTESIAN_POINT ( 'NONE',  ( 30.75999999999999801, -2.920591722607769916E-15, 0.000000000000000000 ) ) ;
#43 = ADVANCED_FACE ( 'NONE', ( #355 ), #379, .F. ) ;
#44 = CARTESIAN_POINT ( 'NONE',  ( -46.28999999999999915, -5.668890033253099569E-15, 0.000000000000000000 ) ) ;
#45 = AXIS2_PLACEMENT_3D ( 'NONE', #334, #11, #142 ) ;
#46 = DIRECTION ( 'NONE',  ( -1.000000000000000000, -1.110758249368559885E-15, 0.000000000000000000 ) ) ;
#47 = DIRECTION ( 'NONE',  ( -0.9999999475399986570, 0.0003239135683173579097, 0.000000000000000000 ) ) ;
#48 = EDGE_LOOP ( 'NONE', ( #236, #335, #219 ) ) ;
#49 = CIRCLE ( 'NONE', #207, 20.00000000000000000 ) ;
#50 = EDGE_CURVE ( 'NONE', #227, #58, #311, .T. ) ;
#51 = AXIS2_PLACEMENT_3D ( 'NONE', #13, #404, #350 ) ;
#52 = DATE_AND_TIME ( #22, #271 ) ;
#53 = CIRCLE ( 'NONE', #24, 20.00000000000000000 ) ;
#54 = COORDINATED_UNIVERSAL_TIME_OFFSET ( 8, 0, .AHEAD. ) ;
#55 = EDGE_LOOP ( 'NONE', ( #202, #144, #357 ) ) ;
#56 = APPLICATION_PROTOCOL_DEFINITION ( 'international standard', 'config_control_design', 1994, #348 ) ;
#57 = CC_DESIGN_PERSON_AND_ORGANIZATION_ASSIGNMENT ( #218, #127, ( #210 ) ) ;
#58 = VERTEX_POINT ( 'NONE', #263 ) ;
#59 = DIRECTION ( 'NONE',  ( -1.000000000000000000, -1.133778006650619874E-15, 0.000000000000000000 ) ) ;
#60 = CARTESIAN_POINT ( 'NONE',  ( -10.16709729271470053, -1.152723130195700053E-14, 0.000000000000000000 ) ) ;
#61 = DIRECTION ( 'NONE',  ( 0.000000000000000000, 0.000000000000000000, 1.000000000000000000 ) ) ;
#62 = DIRECTION ( 'NONE',  ( -0.004536916010437279725, -0.9999897081435958901, -2.462008928554471163E-19 ) ) ;
#63 = ORIENTED_EDGE ( 'NONE', *, *, #366, .T. ) ;
#64 = SPHERICAL_SURFACE ( 'NONE', #177, 30.75999999999999801 ) ;
#65 = CARTESIAN_POINT ( 'NONE',  ( -10.16709729271470053, -5.668890033253099569E-15, -20.00000000000000355 ) ) ;
#66 = CC_DESIGN_APPROVAL ( #77, ( #210 ) ) ;
#67 = CARTESIAN_POINT ( 'NONE',  ( 30.75999999999999801, -2.920591722607769916E-15, 0.000000000000000000 ) ) ;
#68 = DIRECTION ( 'NONE',  ( -0.9999999475399987681, 0.0003239135683173579639, 0.000000000000000000 ) ) ;
#69 = ORIENTED_EDGE ( 'NONE', *, *, #122, .F. ) ;
#70 = FACE_OUTER_BOUND ( 'NONE', #55, .T. ) ;
#71 = DIRECTION ( 'NONE',  ( 1.000000000000000000, 0.000000000000000000, 0.000000000000000000 ) ) ;
#72 = UNCERTAINTY_MEASURE_WITH_UNIT (LENGTH_MEASURE( 1.000000000000000082E-05 ), #96, 'distance_accuracy_value', 'NONE');
#73 = EDGE_CURVE ( 'NONE', #58, #304, #398, .T. ) ;
#74 = CARTESIAN_POINT ( 'NONE',  ( 344.5000000000000000, -3.562368232963589360E-15, 0.000000000000000000 ) ) ;
#75 = ORIENTED_EDGE ( 'NONE', *, *, #178, .F. ) ;
#76 = CARTESIAN_POINT ( 'NONE',  ( 7.389557128714887568, 20.00000000000000711, 2.449293598294738462E-15 ) ) ;
#77 = APPROVAL ( #121, 'Î´Ö¸¶¨' ) ;
#78 = PRODUCT_DEFINITION_FORMATION_WITH_SPECIFIED_SOURCE ( 'ÈÎºÎ', '', #241, .NOT_KNOWN. ) ;
#79 = EDGE_LOOP ( 'NONE', ( #269, #375, #2 ) ) ;
#80 = CARTESIAN_POINT ( 'NONE',  ( -46.28999999999999915, -5.668890033253099569E-15, 0.000000000000000000 ) ) ;
#81 = MANIFOLD_SOLID_BREP ( '145269.stp[1]', #367 ) ;
#82 = AXIS2_PLACEMENT_3D ( 'NONE', #60, #160, #228 ) ;
#83 = EDGE_CURVE ( 'NONE', #300, #205, #138, .T. ) ;
#84 = EDGE_CURVE ( 'NONE', #37, #105, #117, .T. ) ;
#85 = AXIS2_PLACEMENT_3D ( 'NONE', #285, #103, #61 ) ;
#86 = LOCAL_TIME ( 15, 41, 7.000000000000000000, #214 ) ;
#87 = EDGE_CURVE ( 'NONE', #215, #227, #170, .T. ) ;
#88 = APPROVAL_ROLE ( '' ) ;
#89 = DESIGN_CONTEXT ( 'detailed design', #348, 'design' ) ;
#90 = SECURITY_CLASSIFICATION_LEVEL ( 'unclassified' ) ;
#91 = EDGE_LOOP ( 'NONE', ( #298, #128, #134, #63, #351, #223 ) ) ;
#92 = CARTESIAN_POINT ( 'NONE',  ( 7.389557128714869805, 0.1060308276988780329, 19.99971893461446726 ) ) ;
#93 = EDGE_CURVE ( 'NONE', #95, #300, #306, .T. ) ;
#94 = PERSON_AND_ORGANIZATION ( #10, #282 ) ;
#95 = VERTEX_POINT ( 'NONE', #4 ) ;
#96 =( LENGTH_UNIT ( ) NAMED_UNIT ( * ) SI_UNIT ( .MILLI., .METRE. ) );
#97 = DIRECTION ( 'NONE',  ( 0.000000000000000000, 0.000000000000000000, 1.000000000000000000 ) ) ;
#98 = ORIENTED_EDGE ( 'NONE', *, *, #12, .F. ) ;
#99 = CARTESIAN_POINT ( 'NONE',  ( -10.16709729271470053, -1.152723130195700053E-14, 0.000000000000000000 ) ) ;
#100 = ORIENTED_EDGE ( 'NONE', *, *, #93, .T. ) ;
#101 = DIRECTION ( 'NONE',  ( 0.000000000000000000, 0.000000000000000000, 1.000000000000000000 ) ) ;
#102 = LINE ( 'NONE', #8, #146 ) ;
#103 = DIRECTION ( 'NONE',  ( -1.000000000000000000, -1.133778006650619874E-15, 0.000000000000000000 ) ) ;
#104 = FACE_OUTER_BOUND ( 'NONE', #79, .T. ) ;
#105 = VERTEX_POINT ( 'NONE', #224 ) ;
#106 = CARTESIAN_POINT ( 'NONE',  ( -46.28999999999999915, -5.668890033253099569E-15, 0.000000000000000000 ) ) ;
#107 = EDGE_CURVE ( 'NONE', #37, #385, #320, .T. ) ;
#108 = DIRECTION ( 'NONE',  ( -1.000000000000000000, -3.204048463084470150E-15, 0.000000000000000000 ) ) ;
#109 = AXIS2_PLACEMENT_3D ( 'NONE', #189, #197, #68 ) ;
#110 = CARTESIAN_POINT ( 'NONE',  ( -1.388770081999922246, 20.00000000000050093, 2.449293598294767650E-15 ) ) ;
#111 = CARTESIAN_POINT ( 'NONE',  ( 7.389557128714908885, 0.1060308276877931499, 19.99971893461455252 ) ) ;
#112 = CARTESIAN_POINT ( 'NONE',  ( 7.389557128714869805, 3.402785144330299519E-14, 0.000000000000000000 ) ) ;
#113 = FACE_OUTER_BOUND ( 'NONE', #18, .T. ) ;
#114 = APPROVAL_PERSON_ORGANIZATION ( #274, #278, #88 ) ;
#115 = ORIENTED_EDGE ( 'NONE', *, *, #73, .T. ) ;
#116 = EDGE_CURVE ( 'NONE', #215, #58, #399, .T. ) ;
#117 = CIRCLE ( 'NONE', #226, 20.00000000000000000 ) ;
#118 = APPROVAL_STATUS ( 'not_yet_approved' ) ;
#119 = AXIS2_PLACEMENT_3D ( 'NONE', #166, #266, #47 ) ;
#120 = PERSON_AND_ORGANIZATION ( #10, #282 ) ;
#121 = APPROVAL_STATUS ( 'not_yet_approved' ) ;
#122 = EDGE_CURVE ( 'NONE', #385, #283, #264, .T. ) ;
#123 = PERSON_AND_ORGANIZATION ( #10, #282 ) ;
#124 = EDGE_LOOP ( 'NONE', ( #287, #378, #392 ) ) ;
#125 = LINE ( 'NONE', #5, #333 ) ;
#126 = LOCAL_TIME ( 15, 41, 7.000000000000000000, #27 ) ;
#127 = PERSON_AND_ORGANIZATION_ROLE ( 'classification_officer' ) ;
#128 = ORIENTED_EDGE ( 'NONE', *, *, #305, .T. ) ;
#129 =( NAMED_UNIT ( * ) SI_UNIT ( $, .STERADIAN. ) SOLID_ANGLE_UNIT ( ) );
#130 = VERTEX_POINT ( 'NONE', #382 ) ;
#131 = DIRECTION ( 'NONE',  ( -1.000000000000000000, -3.204048463084470150E-15, 0.000000000000000000 ) ) ;
#132 = DIRECTION ( 'NONE',  ( -1.000000000000000000, -1.133778006650619874E-15, 0.000000000000000000 ) ) ;
#133 = SPHERICAL_SURFACE ( 'NONE', #397, 30.75999999999999801 ) ;
#134 = ORIENTED_EDGE ( 'NONE', *, *, #147, .T. ) ;
#135 = DIRECTION ( 'NONE',  ( -1.000000000000000000, -3.204048463084470150E-15, 0.000000000000000000 ) ) ;
#136 = FACE_OUTER_BOUND ( 'NONE', #168, .T. ) ;
#137 = DIRECTION ( 'NONE',  ( -1.000000000000000000, -1.133778006650619874E-15, 0.000000000000000000 ) ) ;
#138 = CIRCLE ( 'NONE', #294, 20.00000000000000000 ) ;
#139 = CIRCLE ( 'NONE', #302, 20.00000000000120082 ) ;
#140 = DIRECTION ( 'NONE',  ( 0.000000000000000000, 0.000000000000000000, 1.000000000000000000 ) ) ;
#141 = LINE ( 'NONE', #110, #301 ) ;
#142 = DIRECTION ( 'NONE',  ( 1.105886215935186913E-15, -1.000000000000000000, 0.000000000000000000 ) ) ;
#143 = CC_DESIGN_PERSON_AND_ORGANIZATION_ASSIGNMENT ( #339, #405, ( #78 ) ) ;
#144 = ORIENTED_EDGE ( 'NONE', *, *, #107, .T. ) ;
#145 = AXIS2_PLACEMENT_3D ( 'NONE', #284, #386, #288 ) ;
#146 = VECTOR ( 'NONE', #39, 1000.000000000000000 ) ;
#147 = EDGE_CURVE ( 'NONE', #156, #130, #171, .T. ) ;
#148 = AXIS2_PLACEMENT_3D ( 'NONE', #393, #387, #363 ) ;
#149 = MECHANICAL_CONTEXT ( 'NONE', #309, 'mechanical' ) ;
#150 = AXIS2_PLACEMENT_3D ( 'NONE', #29, #157, #191 ) ;
#151 = LOCAL_TIME ( 15, 41, 7.000000000000000000, #248 ) ;
#152 = CALENDAR_DATE ( 2021, 26, 5 ) ;
#153 = CC_DESIGN_DATE_AND_TIME_ASSIGNMENT ( #182, #280, ( #370 ) ) ;
#154 = ADVANCED_FACE ( 'NONE', ( #70 ), #64, .T. ) ;
#155 = PERSON_AND_ORGANIZATION_ROLE ( 'design_owner' ) ;
#156 = VERTEX_POINT ( 'NONE', #352 ) ;
#157 = DIRECTION ( 'NONE',  ( -1.000000000000000000, -3.219646771412780418E-15, 0.000000000000000000 ) ) ;
#158 = PERSON_AND_ORGANIZATION ( #10, #282 ) ;
#159 = EDGE_LOOP ( 'NONE', ( #100, #249, #292, #346, #188, #174 ) ) ;
#160 = DIRECTION ( 'NONE',  ( -1.000000000000000000, -1.133778006650619874E-15, 0.000000000000000000 ) ) ;
#161 = AXIS2_PLACEMENT_3D ( 'NONE', #325, #190, #319 ) ;
#162 = DIRECTION ( 'NONE',  ( -1.000000000000000000, -1.133778006650619874E-15, 0.000000000000000000 ) ) ;
#163 = DIRECTION ( 'NONE',  ( 0.000000000000000000, 0.000000000000000000, 1.000000000000000000 ) ) ;
#164 = ORIENTED_EDGE ( 'NONE', *, *, #400, .T. ) ;
#165 = CARTESIAN_POINT ( 'NONE',  ( 30.75999999999999801, -2.920591722607769916E-15, 0.000000000000000000 ) ) ;
#166 = CARTESIAN_POINT ( 'NONE',  ( 344.5000000000000000, -3.562368232963589360E-15, 0.000000000000000000 ) ) ;
#167 = CARTESIAN_POINT ( 'NONE',  ( -10.16709729271470053, -1.152723130195700053E-14, 0.000000000000000000 ) ) ;
#168 = EDGE_LOOP ( 'NONE', ( #314, #295, #406 ) ) ;
#169 = DIRECTION ( 'NONE',  ( -1.000000000000000000, -1.110758249368559885E-15, 0.000000000000000000 ) ) ;
#170 = CIRCLE ( 'NONE', #250, 20.00000000000000000 ) ;
#171 = CIRCLE ( 'NONE', #216, 20.00000000000120082 ) ;
#172 = DIRECTION ( 'NONE',  ( -0.9999999475399986570, 0.0003239135683173579097, 0.000000000000000000 ) ) ;
#173 = EDGE_CURVE ( 'NONE', #304, #215, #184, .T. ) ;
#174 = ORIENTED_EDGE ( 'NONE', *, *, #313, .F. ) ;
#175 = SPHERICAL_SURFACE ( 'NONE', #148, 30.75999999999999801 ) ;
#176 = VERTEX_POINT ( 'NONE', #7 ) ;
#177 = AXIS2_PLACEMENT_3D ( 'NONE', #165, #193, #38 ) ;
#178 = EDGE_CURVE ( 'NONE', #105, #385, #376, .T. ) ;
#179 = ADVANCED_BREP_SHAPE_REPRESENTATION ( '145269', ( #81, #206, #336 ), #368 ) ;
#180 = AXIS2_PLACEMENT_3D ( 'NONE', #44, #262, #71 ) ;
#181 = APPLICATION_PROTOCOL_DEFINITION ( 'international standard', 'config_control_design', 1994, #309 ) ;
#182 = DATE_AND_TIME ( #152, #151 ) ;
#183 = ADVANCED_FACE ( 'NONE', ( #16 ), #235, .F. ) ;
#184 = CIRCLE ( 'NONE', #82, 20.00000000000000000 ) ;
#185 = APPROVAL_ROLE ( '' ) ;
#186 = VERTEX_POINT ( 'NONE', #293 ) ;
#187 = DATE_AND_TIME ( #316, #126 ) ;
#188 = ORIENTED_EDGE ( 'NONE', *, *, #50, .F. ) ;
#189 = CARTESIAN_POINT ( 'NONE',  ( 344.5000000000000000, -3.562368232963589360E-15, 0.000000000000000000 ) ) ;
#190 = DIRECTION ( 'NONE',  ( -1.000000000000000000, -3.204048463084470150E-15, 0.000000000000000000 ) ) ;
#191 = DIRECTION ( 'NONE',  ( 3.209238430556916420E-15, -1.000000000000000000, 0.000000000000000000 ) ) ;
#192 = ORIENTED_EDGE ( 'NONE', *, *, #87, .F. ) ;
#193 = DIRECTION ( 'NONE',  ( -0.004536916010911569604, -0.9999897081435937807, -2.462008928811843774E-19 ) ) ;
#194 = AXIS2_PLACEMENT_3D ( 'NONE', #225, #380, #372 ) ;
#195 = DIRECTION ( 'NONE',  ( 1.000000000000000000, 0.000000000000000000, 0.000000000000000000 ) ) ;
#196 = DIRECTION ( 'NONE',  ( -0.9999897081435958901, 0.004536916010437279725, 0.000000000000000000 ) ) ;
#197 = DIRECTION ( 'NONE',  ( 0.0003239135683173579639, 0.9999999475399987681, -1.983398469152178712E-20 ) ) ;
#198 = ORIENTED_EDGE ( 'NONE', *, *, #107, .F. ) ;
#199 = DIRECTION ( 'NONE',  ( 1.105886215935186913E-15, -1.000000000000000000, 0.000000000000000000 ) ) ;
#200 = EDGE_CURVE ( 'NONE', #176, #300, #34, .T. ) ;
#201 = DIRECTION ( 'NONE',  ( -0.0003239135683173579097, -0.9999999475399986570, 1.983398469152178411E-20 ) ) ;
#202 = ORIENTED_EDGE ( 'NONE', *, *, #23, .T. ) ;
#203 = AXIS2_PLACEMENT_3D ( 'NONE', #275, #384, #163 ) ;
#204 = CARTESIAN_POINT ( 'NONE',  ( -1.388770081999900041, -1.574556975265859973E-15, 0.000000000000000000 ) ) ;
#205 = VERTEX_POINT ( 'NONE', #76 ) ;
#206 = MANIFOLD_SOLID_BREP ( '145269.stp[2]', #33 ) ;
#207 = AXIS2_PLACEMENT_3D ( 'NONE', #347, #59, #286 ) ;
#208 = CC_DESIGN_DATE_AND_TIME_ASSIGNMENT ( #52, #26, ( #210 ) ) ;
#209 = CC_DESIGN_PERSON_AND_ORGANIZATION_ASSIGNMENT ( #94, #308, ( #78 ) ) ;
#210 = SECURITY_CLASSIFICATION ( '', '', #90 ) ;
#211 = APPROVAL_DATE_TIME ( #373, #77 ) ;
#212 = PRODUCT_DEFINITION_SHAPE ( 'NONE', 'NONE',  #370 ) ;
#213 = ADVANCED_FACE ( 'NONE', ( #113 ), #175, .T. ) ;
#214 = COORDINATED_UNIVERSAL_TIME_OFFSET ( 8, 0, .AHEAD. ) ;
#215 = VERTEX_POINT ( 'NONE', #65 ) ;
#216 = AXIS2_PLACEMENT_3D ( 'NONE', #32, #135, #101 ) ;
#217 = FACE_OUTER_BOUND ( 'NONE', #381, .T. ) ;
#218 = PERSON_AND_ORGANIZATION ( #10, #282 ) ;
#219 = ORIENTED_EDGE ( 'NONE', *, *, #400, .F. ) ;
#220 = DIRECTION ( 'NONE',  ( -1.000000000000000000, -3.219646771412780418E-15, 0.000000000000000000 ) ) ;
#221 = DIRECTION ( 'NONE',  ( -0.004536916010437279725, -0.9999897081435958901, -2.462008928554471163E-19 ) ) ;
#222 = CYLINDRICAL_SURFACE ( 'NONE', #194, 20.00000000000110134 ) ;
#223 = ORIENTED_EDGE ( 'NONE', *, *, #23, .F. ) ;
#224 = CARTESIAN_POINT ( 'NONE',  ( 7.389557128714934642, -19.99999999999996447, 0.000000000000000000 ) ) ;
#225 = CARTESIAN_POINT ( 'NONE',  ( 8.242661702345269958, 3.676123984129379833E-14, 0.000000000000000000 ) ) ;
#226 = AXIS2_PLACEMENT_3D ( 'NONE', #258, #383, #389 ) ;
#227 = VERTEX_POINT ( 'NONE', #289 ) ;
#228 = DIRECTION ( 'NONE',  ( 0.000000000000000000, 0.000000000000000000, 1.000000000000000000 ) ) ;
#229 = AXIS2_PLACEMENT_3D ( 'NONE', #80, #359, #195 ) ;
#230 = FACE_OUTER_BOUND ( 'NONE', #159, .T. ) ;
#231 = ADVANCED_FACE ( 'NONE', ( #230 ), #326, .T. ) ;
#232 = CARTESIAN_POINT ( 'NONE',  ( -10.16709729271472185, 19.99999999999998934, 2.449293598294737279E-15 ) ) ;
#233 = ADVANCED_FACE ( 'NONE', ( #238 ), #365, .T. ) ;
#234 = DIRECTION ( 'NONE',  ( -1.000000000000000000, -3.204048463084470150E-15, 0.000000000000000000 ) ) ;
#235 = SPHERICAL_SURFACE ( 'NONE', #119, 336.0000000000000000 ) ;
#236 = ORIENTED_EDGE ( 'NONE', *, *, #327, .F. ) ;
#237 = AXIS2_PLACEMENT_3D ( 'NONE', #204, #169, #199 ) ;
#238 = FACE_OUTER_BOUND ( 'NONE', #41, .T. ) ;
#239 = CIRCLE ( 'NONE', #307, 20.00000000000000000 ) ;
#240 = ADVANCED_FACE ( 'NONE', ( #331 ), #299, .F. ) ;
#241 = PRODUCT ( '145269', '145269', '', ( #149 ) ) ;
#242 = APPROVAL_PERSON_ORGANIZATION ( #276, #77, #245 ) ;
#243 = EDGE_CURVE ( 'NONE', #130, #186, #139, .T. ) ;
#244 = CARTESIAN_POINT ( 'NONE',  ( 0.000000000000000000, 0.000000000000000000, 0.000000000000000000 ) ) ;
#245 = APPROVAL_ROLE ( '' ) ;
#246 = CYLINDRICAL_SURFACE ( 'NONE', #150, 20.00000000000110134 ) ;
#247 = PRODUCT_RELATED_PRODUCT_CATEGORY ( 'detail', '', ( #241 ) ) ;
#248 = COORDINATED_UNIVERSAL_TIME_OFFSET ( 8, 0, .AHEAD. ) ;
#249 = ORIENTED_EDGE ( 'NONE', *, *, #83, .T. ) ;
#250 = AXIS2_PLACEMENT_3D ( 'NONE', #349, #137, #35 ) ;
#251 = CC_DESIGN_APPROVAL ( #303, ( #370 ) ) ;
#252 = DIRECTION ( 'NONE',  ( 0.000000000000000000, 0.000000000000000000, 1.000000000000000000 ) ) ;
#253 = COORDINATED_UNIVERSAL_TIME_OFFSET ( 8, 0, .AHEAD. ) ;
#254 = ORIENTED_EDGE ( 'NONE', *, *, #173, .T. ) ;
#255 = LINE ( 'NONE', #279, #312 ) ;
#256 = ORIENTED_EDGE ( 'NONE', *, *, #337, .T. ) ;
#257 = DIRECTION ( 'NONE',  ( 0.000000000000000000, -1.000000000000000000, 0.000000000000000000 ) ) ;
#258 = CARTESIAN_POINT ( 'NONE',  ( 7.389557128714869805, 3.402785144330299519E-14, 0.000000000000000000 ) ) ;
#259 = DIRECTION ( 'NONE',  ( -0.9999897081435958901, 0.004536916010437279725, 0.000000000000000000 ) ) ;
#260 = ORIENTED_EDGE ( 'NONE', *, *, #243, .F. ) ;
#261 = DIRECTION ( 'NONE',  ( 0.000000000000000000, 0.000000000000000000, 1.000000000000000000 ) ) ;
#262 = DIRECTION ( 'NONE',  ( 0.000000000000000000, 1.000000000000000000, 0.000000000000000000 ) ) ;
#263 = CARTESIAN_POINT ( 'NONE',  ( -10.16709729271470053, -5.668890033253099569E-15, 20.00000000000000355 ) ) ;
#264 = CIRCLE ( 'NONE', #161, 20.00000000000000000 ) ;
#265 = EDGE_CURVE ( 'NONE', #403, #283, #102, .T. ) ;
#266 = DIRECTION ( 'NONE',  ( -0.0003239135683173579097, -0.9999999475399986570, 1.983398469152178411E-20 ) ) ;
#267 = ORIENTED_EDGE ( 'NONE', *, *, #84, .T. ) ;
#268 = CARTESIAN_POINT ( 'NONE',  ( 9.095766275975670112, 3.949462823928459517E-14, 0.000000000000000000 ) ) ;
#269 = ORIENTED_EDGE ( 'NONE', *, *, #391, .F. ) ;
#270 = AXIS2_PLACEMENT_3D ( 'NONE', #99, #132, #9 ) ;
#271 = LOCAL_TIME ( 15, 41, 7.000000000000000000, #253 ) ;
#272 = ADVANCED_FACE ( 'NONE', ( #136 ), #353, .F. ) ;
#273 = CALENDAR_DATE ( 2021, 26, 5 ) ;
#274 = PERSON_AND_ORGANIZATION ( #10, #282 ) ;
#275 = CARTESIAN_POINT ( 'NONE',  ( 9.095766275975670112, 3.949462823928459517E-14, 0.000000000000000000 ) ) ;
#276 = PERSON_AND_ORGANIZATION ( #10, #282 ) ;
#277 = ORIENTED_EDGE ( 'NONE', *, *, #116, .T. ) ;
#278 = APPROVAL ( #118, 'Î´Ö¸¶¨' ) ;
#279 = CARTESIAN_POINT ( 'NONE',  ( -1.388770081999877837, -20.00000000000050093, 0.000000000000000000 ) ) ;
#280 = DATE_TIME_ROLE ( 'creation_date' ) ;
#281 = EDGE_LOOP ( 'NONE', ( #324, #15, #260 ) ) ;
#282 = ORGANIZATION ( 'Î´Ö¸¶¨', 'Î´Ö¸¶¨', '' ) ;
#283 = VERTEX_POINT ( 'NONE', #330 ) ;
#284 = CARTESIAN_POINT ( 'NONE',  ( 30.75999999999999801, -2.920591722607769916E-15, 0.000000000000000000 ) ) ;
#285 = CARTESIAN_POINT ( 'NONE',  ( 7.389557128714909773, 8.378117351425270726E-15, 0.000000000000000000 ) ) ;
#286 = DIRECTION ( 'NONE',  ( 0.000000000000000000, 0.000000000000000000, 1.000000000000000000 ) ) ;
#287 = ORIENTED_EDGE ( 'NONE', *, *, #200, .F. ) ;
#288 = DIRECTION ( 'NONE',  ( -0.9999897081435938917, 0.004536916010911569604, 0.000000000000000000 ) ) ;
#289 = CARTESIAN_POINT ( 'NONE',  ( -10.16709729271467744, -20.00000000000001066, 0.000000000000000000 ) ) ;
#290 = DIRECTION ( 'NONE',  ( 0.000000000000000000, 0.000000000000000000, 1.000000000000000000 ) ) ;
#291 = ADVANCED_FACE ( 'NONE', ( #390 ), #360, .F. ) ;
#292 = ORIENTED_EDGE ( 'NONE', *, *, #12, .T. ) ;
#293 = CARTESIAN_POINT ( 'NONE',  ( 9.095766275975654125, 0.1086419878736531036, 19.99970492078677964 ) ) ;
#294 = AXIS2_PLACEMENT_3D ( 'NONE', #322, #328, #40 ) ;
#295 = ORIENTED_EDGE ( 'NONE', *, *, #87, .T. ) ;
#296 = AXIS2_PLACEMENT_3D ( 'NONE', #74, #201, #172 ) ;
#297 = DIRECTION ( 'NONE',  ( 0.004536916010437280593, 0.9999897081435960011, 2.462008928554471645E-19 ) ) ;
#298 = ORIENTED_EDGE ( 'NONE', *, *, #265, .F. ) ;
#299 = SPHERICAL_SURFACE ( 'NONE', #229, 41.28999999999999915 ) ;
#300 = VERTEX_POINT ( 'NONE', #111 ) ;
#301 = VECTOR ( 'NONE', #46, 1000.000000000000000 ) ;
#302 = AXIS2_PLACEMENT_3D ( 'NONE', #268, #108, #140 ) ;
#303 = APPROVAL ( #345, 'Î´Ö¸¶¨' ) ;
#304 = VERTEX_POINT ( 'NONE', #232 ) ;
#305 = EDGE_CURVE ( 'NONE', #403, #156, #25, .T. ) ;
#306 = CIRCLE ( 'NONE', #85, 20.00000000000000000 ) ;
#307 = AXIS2_PLACEMENT_3D ( 'NONE', #315, #323, #252 ) ;
#308 = PERSON_AND_ORGANIZATION_ROLE ( 'creator' ) ;
#309 = APPLICATION_CONTEXT ( 'configuration controlled 3d designs of mechanical parts and assemblies' ) ;
#310 = DATE_AND_TIME ( #273, #17 ) ;
#311 = CIRCLE ( 'NONE', #270, 20.00000000000000000 ) ;
#312 = VECTOR ( 'NONE', #36, 1000.000000000000000 ) ;
#313 = EDGE_CURVE ( 'NONE', #95, #227, #255, .T. ) ;
#314 = ORIENTED_EDGE ( 'NONE', *, *, #116, .F. ) ;
#315 = CARTESIAN_POINT ( 'NONE',  ( 7.389557128714909773, 8.378117351425270726E-15, 0.000000000000000000 ) ) ;
#316 = CALENDAR_DATE ( 2021, 26, 5 ) ;
#317 = ORIENTED_EDGE ( 'NONE', *, *, #265, .T. ) ;
#318 = CARTESIAN_POINT ( 'NONE',  ( 9.095766275975604387, 20.00000000000123634, 2.449293598294853636E-15 ) ) ;
#319 = DIRECTION ( 'NONE',  ( 0.000000000000000000, 0.000000000000000000, 1.000000000000000000 ) ) ;
#320 = CIRCLE ( 'NONE', #145, 30.75999999999999801 ) ;
#321 = CIRCLE ( 'NONE', #109, 336.0000000000000000 ) ;
#322 = CARTESIAN_POINT ( 'NONE',  ( 7.389557128714909773, 8.378117351425270726E-15, 0.000000000000000000 ) ) ;
#323 = DIRECTION ( 'NONE',  ( -1.000000000000000000, -1.133778006650619874E-15, 0.000000000000000000 ) ) ;
#324 = ORIENTED_EDGE ( 'NONE', *, *, #147, .F. ) ;
#325 = CARTESIAN_POINT ( 'NONE',  ( 7.389557128714869805, 3.402785144330299519E-14, 0.000000000000000000 ) ) ;
#326 = CYLINDRICAL_SURFACE ( 'NONE', #237, 20.00000000000050093 ) ;
#327 = EDGE_CURVE ( 'NONE', #156, #186, #321, .T. ) ;
#328 = DIRECTION ( 'NONE',  ( -1.000000000000000000, -1.133778006650619874E-15, 0.000000000000000000 ) ) ;
#329 = ORIENTED_EDGE ( 'NONE', *, *, #366, .F. ) ;
#330 = CARTESIAN_POINT ( 'NONE',  ( 7.389557128714805856, 20.00000000000003553, 2.449293598294773961E-15 ) ) ;
#331 = FACE_OUTER_BOUND ( 'NONE', #364, .T. ) ;
#332 = CARTESIAN_POINT ( 'NONE',  ( 7.389557128714869805, 0.1060308276988780329, -19.99971893461446726 ) ) ;
#333 = VECTOR ( 'NONE', #220, 1000.000000000000000 ) ;
#334 = CARTESIAN_POINT ( 'NONE',  ( -1.388770081999900041, -1.574556975265859973E-15, 0.000000000000000000 ) ) ;
#335 = ORIENTED_EDGE ( 'NONE', *, *, #305, .F. ) ;
#336 = AXIS2_PLACEMENT_3D ( 'NONE', #244, #97, #341 ) ;
#337 = EDGE_CURVE ( 'NONE', #205, #176, #49, .T. ) ;
#338 = CC_DESIGN_APPROVAL ( #278, ( #78 ) ) ;
#339 = PERSON_AND_ORGANIZATION ( #10, #282 ) ;
#340 = CC_DESIGN_PERSON_AND_ORGANIZATION_ASSIGNMENT ( #158, #369, ( #370 ) ) ;
#341 = DIRECTION ( 'NONE',  ( 1.000000000000000000, 0.000000000000000000, 0.000000000000000000 ) ) ;
#342 = ORIENTED_EDGE ( 'NONE', *, *, #243, .T. ) ;
#343 = AXIS2_PLACEMENT_3D ( 'NONE', #106, #257, #358 ) ;
#344 = CARTESIAN_POINT ( 'NONE',  ( 30.75999999999999801, -2.920591722607769916E-15, 0.000000000000000000 ) ) ;
#345 = APPROVAL_STATUS ( 'not_yet_approved' ) ;
#346 = ORIENTED_EDGE ( 'NONE', *, *, #73, .F. ) ;
#347 = CARTESIAN_POINT ( 'NONE',  ( 7.389557128714909773, 8.378117351425270726E-15, 0.000000000000000000 ) ) ;
#348 = APPLICATION_CONTEXT ( 'configuration controlled 3d designs of mechanical parts and assemblies' ) ;
#349 = CARTESIAN_POINT ( 'NONE',  ( -10.16709729271470053, -1.152723130195700053E-14, 0.000000000000000000 ) ) ;
#350 = DIRECTION ( 'NONE',  ( 0.000000000000000000, 0.000000000000000000, 1.000000000000000000 ) ) ;
#351 = ORIENTED_EDGE ( 'NONE', *, *, #84, .F. ) ;
#352 = CARTESIAN_POINT ( 'NONE',  ( 9.095766275975654125, 0.1086419878736531036, -19.99970492078677964 ) ) ;
#353 = SPHERICAL_SURFACE ( 'NONE', #180, 41.28999999999999915 ) ;
#354 = CC_DESIGN_SECURITY_CLASSIFICATION ( #210, ( #78 ) ) ;
#355 = FACE_OUTER_BOUND ( 'NONE', #124, .T. ) ;
#356 = FACE_OUTER_BOUND ( 'NONE', #91, .T. ) ;
#357 = ORIENTED_EDGE ( 'NONE', *, *, #122, .T. ) ;
#358 = DIRECTION ( 'NONE',  ( 0.000000000000000000, 0.000000000000000000, -1.000000000000000000 ) ) ;
#359 = DIRECTION ( 'NONE',  ( 0.000000000000000000, 1.000000000000000000, 0.000000000000000000 ) ) ;
#360 = SPHERICAL_SURFACE ( 'NONE', #296, 336.0000000000000000 ) ;
#361 = DIRECTION ( 'NONE',  ( 0.000000000000000000, 0.000000000000000000, 1.000000000000000000 ) ) ;
#362 = ADVANCED_FACE ( 'NONE', ( #104 ), #133, .F. ) ;
#363 = DIRECTION ( 'NONE',  ( -0.9999897081435937807, 0.004536916010911569604, 0.000000000000000000 ) ) ;
#364 = EDGE_LOOP ( 'NONE', ( #115, #254, #277 ) ) ;
#365 = CYLINDRICAL_SURFACE ( 'NONE', #45, 20.00000000000050093 ) ;
#366 = EDGE_CURVE ( 'NONE', #130, #105, #125, .T. ) ;
#367 = CLOSED_SHELL ( 'NONE', ( #362, #231, #240, #272, #233, #43 ) ) ;
#368 =( GEOMETRIC_REPRESENTATION_CONTEXT ( 3 ) GLOBAL_UNCERTAINTY_ASSIGNED_CONTEXT ( ( #72 ) ) GLOBAL_UNIT_ASSIGNED_CONTEXT ( ( #96, #1, #129 ) ) REPRESENTATION_CONTEXT ( 'NONE', 'WORKASPACE' ) );
#369 = PERSON_AND_ORGANIZATION_ROLE ( 'creator' ) ;
#370 = PRODUCT_DEFINITION ( 'Î´Öª', '', #78, #89 ) ;
#371 = ADVANCED_FACE ( 'NONE', ( #217 ), #246, .T. ) ;
#372 = DIRECTION ( 'NONE',  ( 3.209238430556916420E-15, -1.000000000000000000, 0.000000000000000000 ) ) ;
#373 = DATE_AND_TIME ( #402, #86 ) ;
#374 = AXIS2_PLACEMENT_3D ( 'NONE', #67, #221, #196 ) ;
#375 = ORIENTED_EDGE ( 'NONE', *, *, #200, .T. ) ;
#376 = CIRCLE ( 'NONE', #388, 20.00000000000000000 ) ;
#377 = SHAPE_DEFINITION_REPRESENTATION ( #212, #179 ) ;
#378 = ORIENTED_EDGE ( 'NONE', *, *, #337, .F. ) ;
#379 = SPHERICAL_SURFACE ( 'NONE', #374, 30.75999999999999801 ) ;
#380 = DIRECTION ( 'NONE',  ( -1.000000000000000000, -3.219646771412780418E-15, 0.000000000000000000 ) ) ;
#381 = EDGE_LOOP ( 'NONE', ( #342, #164, #317, #69, #75, #329 ) ) ;
#382 = CARTESIAN_POINT ( 'NONE',  ( 9.095766275975734061, -20.00000000000116174, 0.000000000000000000 ) ) ;
#383 = DIRECTION ( 'NONE',  ( -1.000000000000000000, -3.204048463084470150E-15, 0.000000000000000000 ) ) ;
#384 = DIRECTION ( 'NONE',  ( -1.000000000000000000, -3.204048463084470150E-15, 0.000000000000000000 ) ) ;
#385 = VERTEX_POINT ( 'NONE', #92 ) ;
#386 = DIRECTION ( 'NONE',  ( 0.004536916010911569604, 0.9999897081435937807, 2.462008928811843293E-19 ) ) ;
#387 = DIRECTION ( 'NONE',  ( -0.004536916010911569604, -0.9999897081435937807, -2.462008928811843774E-19 ) ) ;
#388 = AXIS2_PLACEMENT_3D ( 'NONE', #3, #131, #261 ) ;
#389 = DIRECTION ( 'NONE',  ( 0.000000000000000000, 0.000000000000000000, 1.000000000000000000 ) ) ;
#390 = FACE_OUTER_BOUND ( 'NONE', #281, .T. ) ;
#391 = EDGE_CURVE ( 'NONE', #176, #95, #239, .T. ) ;
#392 = ORIENTED_EDGE ( 'NONE', *, *, #83, .F. ) ;
#393 = CARTESIAN_POINT ( 'NONE',  ( 30.75999999999999801, -2.920591722607769916E-15, 0.000000000000000000 ) ) ;
#394 = ORIENTED_EDGE ( 'NONE', *, *, #313, .T. ) ;
#395 = AXIS2_PLACEMENT_3D ( 'NONE', #42, #297, #14 ) ;
#396 = ADVANCED_FACE ( 'NONE', ( #356 ), #222, .T. ) ;
#397 = AXIS2_PLACEMENT_3D ( 'NONE', #344, #62, #259 ) ;
#398 = CIRCLE ( 'NONE', #20, 20.00000000000000000 ) ;
#399 = CIRCLE ( 'NONE', #343, 41.28999999999999915 ) ;
#400 = EDGE_CURVE ( 'NONE', #186, #403, #407, .T. ) ;
#401 = APPROVAL_DATE_TIME ( #310, #278 ) ;
#402 = CALENDAR_DATE ( 2021, 26, 5 ) ;
#403 = VERTEX_POINT ( 'NONE', #318 ) ;
#404 = DIRECTION ( 'NONE',  ( -1.000000000000000000, -3.204048463084470150E-15, 0.000000000000000000 ) ) ;
#405 = PERSON_AND_ORGANIZATION_ROLE ( 'design_supplier' ) ;
#406 = ORIENTED_EDGE ( 'NONE', *, *, #50, .T. ) ;
#407 = CIRCLE ( 'NONE', #203, 20.00000000000120082 ) ;
ENDSEC;
END-ISO-10303-21;
