ISO-10303-21;
HEADER;
FILE_DESCRIPTION (( 'STEP AP214' ),
    '1' );
FILE_NAME ('150001.STEP',
    '2019-07-04T02:11:53',
    ( '' ),
    ( '' ),
    'SwSTEP 2.0',
    'SolidWorks 2016',
    '' );
FILE_SCHEMA (( 'AUTOMOTIVE_DESIGN' ));
ENDSEC;

DATA;
#1 = ORIENTED_EDGE ( 'NONE', *, *, #124, .F. ) ;
#2 = FACE_OUTER_BOUND ( 'NONE', #108, .T. ) ;
#3 = STYLED_ITEM ( 'NONE', ( #30 ), #154 ) ;
#4 = ORIENTED_EDGE ( 'NONE', *, *, #124, .T. ) ;
#5 = UNCERTAINTY_MEASURE_WITH_UNIT (LENGTH_MEASURE( 1.000000000000000100E-005 ), #168, 'distance_accuracy_value', 'NONE');
#6 = DIRECTION ( 'NONE',  ( -1.000000000000000000, -6.937607244762875000E-016, -0.0000000000000000000 ) ) ;
#7 = ORIENTED_EDGE ( 'NONE', *, *, #110, .F. ) ;
#8 = AXIS2_PLACEMENT_3D ( 'NONE', #190, #11, #25 ) ;
#9 = DIRECTION ( 'NONE',  ( -1.000000000000000000, -6.937607244762875000E-016, -0.0000000000000000000 ) ) ;
#10 = CARTESIAN_POINT ( 'NONE',  ( 57.97224564898157700, 38.85842023547016300, 7.654042494670955600E-016 ) ) ;
#11 = DIRECTION ( 'NONE',  ( -8.496118506040342700E-032, 1.224646799147353200E-016, -1.000000000000000000 ) ) ;
#12 = DIRECTION ( 'NONE',  ( 0.0000000000000000000, 0.0000000000000000000, -1.000000000000000000 ) ) ;
#13 = ORIENTED_EDGE ( 'NONE', *, *, #182, .T. ) ;
#14 = PRESENTATION_LAYER_ASSIGNMENT (  '', '', ( #172 ) ) ;
#15 = ORIENTED_EDGE ( 'NONE', *, *, #182, .F. ) ;
#16 = CIRCLE ( 'NONE', #78, 121.5000000000000300 ) ;
#17 =( GEOMETRIC_REPRESENTATION_CONTEXT ( 3 ) GLOBAL_UNCERTAINTY_ASSIGNED_CONTEXT ( ( #44 ) ) GLOBAL_UNIT_ASSIGNED_CONTEXT ( ( #185, #147, #92 ) ) REPRESENTATION_CONTEXT ( 'NONE', 'WORKASPACE' ) );
#18 = VERTEX_POINT ( 'NONE', #67 ) ;
#19 = SURFACE_STYLE_FILL_AREA ( #73 ) ;
#20 = CIRCLE ( 'NONE', #8, 121.5000000000000100 ) ;
#21 = AXIS2_PLACEMENT_3D ( 'NONE', #148, #132, #37 ) ;
#22 = ADVANCED_FACE ( 'NONE', ( #165 ), #176, .T. ) ;
#23 = CARTESIAN_POINT ( 'NONE',  ( 185.1060967416565300, 32.60842023547018400, 0.0000000000000000000 ) ) ;
#24 = AXIS2_PLACEMENT_3D ( 'NONE', #146, #39, #57 ) ;
#25 = DIRECTION ( 'NONE',  ( 0.0000000000000000000, 1.000000000000000000, 1.224646799147353200E-016 ) ) ;
#26 = DIRECTION ( 'NONE',  ( -1.000000000000000000, -6.937607244762875000E-016, -0.0000000000000000000 ) ) ;
#27 = CIRCLE ( 'NONE', #24, 45.00000000000000000 ) ;
#28 = MECHANICAL_DESIGN_GEOMETRIC_PRESENTATION_REPRESENTATION (  '', ( #3 ), #17 ) ;
#29 = SPHERICAL_SURFACE ( 'NONE', #82, 44.99999999999999300 ) ;
#30 = PRESENTATION_STYLE_ASSIGNMENT (( #90 ) ) ;
#31 = AXIS2_PLACEMENT_3D ( 'NONE', #170, #48, #171 ) ;
#32 = SPHERICAL_SURFACE ( 'NONE', #49, 121.5000000000000100 ) ;
#33 = SURFACE_SIDE_STYLE ('',( #158 ) ) ;
#34 = ADVANCED_FACE ( 'NONE', ( #38 ), #29, .T. ) ;
#35 = FILL_AREA_STYLE_COLOUR ( '', #46 ) ;
#36 = DIRECTION ( 'NONE',  ( -1.000000000000000000, -6.937607244762875000E-016, -0.0000000000000000000 ) ) ;
#37 = DIRECTION ( 'NONE',  ( 1.110223024625156100E-015, -1.000000000000000000, 0.0000000000000000000 ) ) ;
#38 = FACE_OUTER_BOUND ( 'NONE', #100, .T. ) ;
#39 = DIRECTION ( 'NONE',  ( -0.0000000000000000000, 0.0000000000000000000, 1.000000000000000000 ) ) ;
#40 = CARTESIAN_POINT ( 'NONE',  ( 185.1060967416565300, 32.60842023547018400, 0.0000000000000000000 ) ) ;
#41 = ORIENTED_EDGE ( 'NONE', *, *, #163, .F. ) ;
#42 = CYLINDRICAL_SURFACE ( 'NONE', #98, 6.249999999999998200 ) ;
#43 = SPHERICAL_SURFACE ( 'NONE', #62, 44.99999999999999300 ) ;
#44 = UNCERTAINTY_MEASURE_WITH_UNIT (LENGTH_MEASURE( 1.000000000000000100E-005 ), #185, 'distance_accuracy_value', 'NONE');
#45 = EDGE_LOOP ( 'NONE', ( #79, #157, #123, #192 ) ) ;
#46 = COLOUR_RGB ( '',1.000000000000000000, 1.000000000000000000, 1.000000000000000000 ) ;
#47 = FACE_OUTER_BOUND ( 'NONE', #45, .T. ) ;
#48 = DIRECTION ( 'NONE',  ( -1.000000000000000000, -6.937607244762875000E-016, -0.0000000000000000000 ) ) ;
#49 = AXIS2_PLACEMENT_3D ( 'NONE', #69, #72, #105 ) ;
#50 = CARTESIAN_POINT ( 'NONE',  ( 63.76695425251578800, 32.60842023547017000, 0.0000000000000000000 ) ) ;
#51 = CLOSED_SHELL ( 'NONE', ( #22, #65, #34, #68, #139, #102 ) ) ;
#52 = ORIENTED_EDGE ( 'NONE', *, *, #177, .T. ) ;
#53 = DIRECTION ( 'NONE',  ( 1.110223024625156100E-015, -1.000000000000000000, 0.0000000000000000000 ) ) ;
#54 = CARTESIAN_POINT ( 'NONE',  ( 0.0000000000000000000, 0.0000000000000000000, 0.0000000000000000000 ) ) ;
#55 =( NAMED_UNIT ( * ) SI_UNIT ( $, .STERADIAN. ) SOLID_ANGLE_UNIT ( ) );
#56 = FACE_OUTER_BOUND ( 'NONE', #61, .T. ) ;
#57 = DIRECTION ( 'NONE',  ( 1.000000000000000000, 0.0000000000000000000, 0.0000000000000000000 ) ) ;
#58 = MANIFOLD_SOLID_BREP ( 'Ðý×ª1', #51 ) ;
#59 = PRESENTATION_STYLE_ASSIGNMENT (( #114 ) ) ;
#60 = EDGE_CURVE ( 'NONE', #149, #66, #76, .T. ) ;
#61 = EDGE_LOOP ( 'NONE', ( #97, #13, #4 ) ) ;
#62 = AXIS2_PLACEMENT_3D ( 'NONE', #156, #140, #155 ) ;
#63 = ORIENTED_EDGE ( 'NONE', *, *, #125, .T. ) ;
#64 = SHAPE_DEFINITION_REPRESENTATION ( #74, #154 ) ;
#65 = ADVANCED_FACE ( 'NONE', ( #164 ), #32, .F. ) ;
#66 = VERTEX_POINT ( 'NONE', #87 ) ;
#67 = CARTESIAN_POINT ( 'NONE',  ( 61.30609674165652500, 32.60842023547012800, 0.0000000000000000000 ) ) ;
#68 = ADVANCED_FACE ( 'NONE', ( #56 ), #43, .T. ) ;
#69 = CARTESIAN_POINT ( 'NONE',  ( 185.1060967416565300, 32.60842023547018400, 0.0000000000000000000 ) ) ;
#70 = EDGE_LOOP ( 'NONE', ( #7, #109, #162 ) ) ;
#71 = DIRECTION ( 'NONE',  ( -0.0000000000000000000, 0.0000000000000000000, -1.000000000000000000 ) ) ;
#72 = DIRECTION ( 'NONE',  ( 0.0000000000000000000, 0.0000000000000000000, -1.000000000000000000 ) ) ;
#73 = FILL_AREA_STYLE ('',( #160 ) ) ;
#74 = PRODUCT_DEFINITION_SHAPE ( 'NONE', 'NONE',  #112 ) ;
#75 = DIRECTION ( 'NONE',  ( 0.0000000000000000000, 0.0000000000000000000, 1.000000000000000000 ) ) ;
#76 = CIRCLE ( 'NONE', #31, 6.249999999999995600 ) ;
#77 = MECHANICAL_DESIGN_GEOMETRIC_PRESENTATION_REPRESENTATION (  '', ( #172 ), #86 ) ;
#78 = AXIS2_PLACEMENT_3D ( 'NONE', #23, #151, #93 ) ;
#79 = ORIENTED_EDGE ( 'NONE', *, *, #125, .F. ) ;
#80 = COLOUR_RGB ( '',1.000000000000000000, 1.000000000000000000, 1.000000000000000000 ) ;
#81 = UNCERTAINTY_MEASURE_WITH_UNIT (LENGTH_MEASURE( 1.000000000000000100E-005 ), #161, 'distance_accuracy_value', 'NONE');
#82 = AXIS2_PLACEMENT_3D ( 'NONE', #183, #71, #184 ) ;
#83 = ORIENTED_EDGE ( 'NONE', *, *, #110, .T. ) ;
#84 = DIRECTION ( 'NONE',  ( 1.110223024625156900E-015, -1.000000000000000000, 0.0000000000000000000 ) ) ;
#85 = VERTEX_POINT ( 'NONE', #143 ) ;
#86 =( GEOMETRIC_REPRESENTATION_CONTEXT ( 3 ) GLOBAL_UNCERTAINTY_ASSIGNED_CONTEXT ( ( #5 ) ) GLOBAL_UNIT_ASSIGNED_CONTEXT ( ( #168, #128, #115 ) ) REPRESENTATION_CONTEXT ( 'NONE', 'WORKASPACE' ) );
#87 = CARTESIAN_POINT ( 'NONE',  ( 63.76695425251578800, 26.35842023547010300, -7.654042494670959600E-016 ) ) ;
#88 = CARTESIAN_POINT ( 'NONE',  ( 57.97224564898158400, 32.60842023547016300, 0.0000000000000000000 ) ) ;
#89 = DIRECTION ( 'NONE',  ( 0.0000000000000000000, -1.000000000000000000, 0.0000000000000000000 ) ) ;
#90 = SURFACE_STYLE_USAGE ( .BOTH. , #173 ) ;
#91 = VECTOR ( 'NONE', #119, 1000.000000000000000 ) ;
#92 =( NAMED_UNIT ( * ) SI_UNIT ( $, .STERADIAN. ) SOLID_ANGLE_UNIT ( ) );
#93 = DIRECTION ( 'NONE',  ( 1.000000000000000000, 0.0000000000000000000, 0.0000000000000000000 ) ) ;
#94 = APPLICATION_PROTOCOL_DEFINITION ( 'draft international standard', 'automotive_design', 1998, #175 ) ;
#95 = DIRECTION ( 'NONE',  ( -6.853228547068867400E-016, 1.000000000000000000, 0.0000000000000000000 ) ) ;
#96 = ORIENTED_EDGE ( 'NONE', *, *, #120, .T. ) ;
#97 = ORIENTED_EDGE ( 'NONE', *, *, #138, .F. ) ;
#98 = AXIS2_PLACEMENT_3D ( 'NONE', #88, #6, #84 ) ;
#99 = AXIS2_PLACEMENT_3D ( 'NONE', #40, #12, #95 ) ;
#100 = EDGE_LOOP ( 'NONE', ( #52, #153, #1 ) ) ;
#101 = LINE ( 'NONE', #10, #130 ) ;
#102 = ADVANCED_FACE ( 'NONE', ( #47 ), #42, .T. ) ;
#103 = VERTEX_POINT ( 'NONE', #116 ) ;
#104 = DIRECTION ( 'NONE',  ( 1.110223024625156900E-015, -1.000000000000000000, 0.0000000000000000000 ) ) ;
#105 = DIRECTION ( 'NONE',  ( -6.853228547068867400E-016, 1.000000000000000000, 0.0000000000000000000 ) ) ;
#106 = PRODUCT_CONTEXT ( 'NONE', #175, 'mechanical' ) ;
#107 = DIRECTION ( 'NONE',  ( 0.0000000000000000000, 1.000000000000000000, 1.224646799147353000E-016 ) ) ;
#108 = EDGE_LOOP ( 'NONE', ( #41, #127, #96 ) ) ;
#109 = ORIENTED_EDGE ( 'NONE', *, *, #163, .T. ) ;
#110 = EDGE_CURVE ( 'NONE', #66, #149, #136, .T. ) ;
#111 = SPHERICAL_SURFACE ( 'NONE', #99, 121.5000000000000100 ) ;
#112 = PRODUCT_DEFINITION ( 'Î´Öª', '', #166, #167 ) ;
#113 = CIRCLE ( 'NONE', #21, 6.250000000000001800 ) ;
#114 = SURFACE_STYLE_USAGE ( .BOTH. , #33 ) ;
#115 =( NAMED_UNIT ( * ) SI_UNIT ( $, .STERADIAN. ) SOLID_ANGLE_UNIT ( ) );
#116 = CARTESIAN_POINT ( 'NONE',  ( 61.74223806671680100, 38.85842023547013500, 0.0000000000000000000 ) ) ;
#117 = APPLICATION_CONTEXT ( 'automotive_design' ) ;
#118 = CIRCLE ( 'NONE', #191, 45.00000000000000000 ) ;
#119 = DIRECTION ( 'NONE',  ( -1.000000000000000000, -6.937607244762875000E-016, -0.0000000000000000000 ) ) ;
#120 = EDGE_CURVE ( 'NONE', #149, #85, #16, .T. ) ;
#121 = CARTESIAN_POINT ( 'NONE',  ( 63.76695425251578800, 38.85842023547017000, 0.0000000000000000000 ) ) ;
#122 = CARTESIAN_POINT ( 'NONE',  ( 61.74223806671680800, 32.60842023547016300, 0.0000000000000000000 ) ) ;
#123 = ORIENTED_EDGE ( 'NONE', *, *, #135, .T. ) ;
#124 = EDGE_CURVE ( 'NONE', #103, #18, #27, .T. ) ;
#125 = EDGE_CURVE ( 'NONE', #149, #103, #101, .T. ) ;
#126 = FILL_AREA_STYLE ('',( #35 ) ) ;
#127 = ORIENTED_EDGE ( 'NONE', *, *, #60, .F. ) ;
#128 =( NAMED_UNIT ( * ) PLANE_ANGLE_UNIT ( ) SI_UNIT ( $, .RADIAN. ) );
#129 = DIRECTION ( 'NONE',  ( -1.000000000000000000, -6.937607244762875000E-016, -0.0000000000000000000 ) ) ;
#130 = VECTOR ( 'NONE', #9, 1000.000000000000000 ) ;
#131 = PRESENTATION_LAYER_ASSIGNMENT (  '', '', ( #3 ) ) ;
#132 = DIRECTION ( 'NONE',  ( -1.000000000000000000, -6.937607244762875000E-016, -0.0000000000000000000 ) ) ;
#133 =( NAMED_UNIT ( * ) PLANE_ANGLE_UNIT ( ) SI_UNIT ( $, .RADIAN. ) );
#134 = CARTESIAN_POINT ( 'NONE',  ( 61.74223806671680100, 26.35842023547015600, -7.654042494670917200E-016 ) ) ;
#135 = EDGE_CURVE ( 'NONE', #66, #180, #144, .T. ) ;
#136 = CIRCLE ( 'NONE', #181, 6.249999999999995600 ) ;
#137 = ORIENTED_EDGE ( 'NONE', *, *, #135, .F. ) ;
#138 = EDGE_CURVE ( 'NONE', #180, #18, #118, .T. ) ;
#139 = ADVANCED_FACE ( 'NONE', ( #2 ), #111, .F. ) ;
#140 = DIRECTION ( 'NONE',  ( -0.0000000000000000000, 0.0000000000000000000, -1.000000000000000000 ) ) ;
#141 = PRODUCT ( '150001', '150001', '', ( #106 ) ) ;
#142 = CARTESIAN_POINT ( 'NONE',  ( 57.97224564898158400, 32.60842023547016300, 0.0000000000000000000 ) ) ;
#143 = CARTESIAN_POINT ( 'NONE',  ( 63.60609674165652900, 32.60842023547010600, 0.0000000000000000000 ) ) ;
#144 = LINE ( 'NONE', #186, #91 ) ;
#145 = AXIS2_PLACEMENT_3D ( 'NONE', #142, #129, #104 ) ;
#146 = CARTESIAN_POINT ( 'NONE',  ( 106.3060967416565200, 32.60842023547015600, 0.0000000000000000000 ) ) ;
#147 =( NAMED_UNIT ( * ) PLANE_ANGLE_UNIT ( ) SI_UNIT ( $, .RADIAN. ) );
#148 = CARTESIAN_POINT ( 'NONE',  ( 61.74223806671680800, 32.60842023547016300, 0.0000000000000000000 ) ) ;
#149 = VERTEX_POINT ( 'NONE', #121 ) ;
#150 = DIRECTION ( 'NONE',  ( 1.000000000000000000, 0.0000000000000000000, 0.0000000000000000000 ) ) ;
#151 = DIRECTION ( 'NONE',  ( 0.0000000000000000000, -0.0000000000000000000, 1.000000000000000000 ) ) ;
#152 =( GEOMETRIC_REPRESENTATION_CONTEXT ( 3 ) GLOBAL_UNCERTAINTY_ASSIGNED_CONTEXT ( ( #81 ) ) GLOBAL_UNIT_ASSIGNED_CONTEXT ( ( #161, #133, #55 ) ) REPRESENTATION_CONTEXT ( 'NONE', 'WORKASPACE' ) );
#153 = ORIENTED_EDGE ( 'NONE', *, *, #138, .T. ) ;
#154 = ADVANCED_BREP_SHAPE_REPRESENTATION ( '150001', ( #58, #159 ), #152 ) ;
#155 = DIRECTION ( 'NONE',  ( -6.167905692361980600E-016, 1.000000000000000000, 0.0000000000000000000 ) ) ;
#156 = CARTESIAN_POINT ( 'NONE',  ( 106.3060967416565200, 32.60842023547015600, 0.0000000000000000000 ) ) ;
#157 = ORIENTED_EDGE ( 'NONE', *, *, #60, .T. ) ;
#158 = SURFACE_STYLE_FILL_AREA ( #126 ) ;
#159 = AXIS2_PLACEMENT_3D ( 'NONE', #54, #75, #150 ) ;
#160 = FILL_AREA_STYLE_COLOUR ( '', #80 ) ;
#161 =( LENGTH_UNIT ( ) NAMED_UNIT ( * ) SI_UNIT ( .MILLI., .METRE. ) );
#162 = ORIENTED_EDGE ( 'NONE', *, *, #120, .F. ) ;
#163 = EDGE_CURVE ( 'NONE', #66, #85, #20, .T. ) ;
#164 = FACE_OUTER_BOUND ( 'NONE', #70, .T. ) ;
#165 = FACE_OUTER_BOUND ( 'NONE', #169, .T. ) ;
#166 = PRODUCT_DEFINITION_FORMATION_WITH_SPECIFIED_SOURCE ( 'ÈÎºÎ', '', #141, .NOT_KNOWN. ) ;
#167 = PRODUCT_DEFINITION_CONTEXT ( 'detailed design', #117, 'design' ) ;
#168 =( LENGTH_UNIT ( ) NAMED_UNIT ( * ) SI_UNIT ( .MILLI., .METRE. ) );
#169 = EDGE_LOOP ( 'NONE', ( #83, #63, #15, #137 ) ) ;
#170 = CARTESIAN_POINT ( 'NONE',  ( 63.76695425251578800, 32.60842023547017000, 0.0000000000000000000 ) ) ;
#171 = DIRECTION ( 'NONE',  ( 0.0000000000000000000, -1.000000000000000000, 0.0000000000000000000 ) ) ;
#172 = STYLED_ITEM ( 'NONE', ( #59 ), #58 ) ;
#173 = SURFACE_SIDE_STYLE ('',( #19 ) ) ;
#174 = APPLICATION_PROTOCOL_DEFINITION ( 'draft international standard', 'automotive_design', 1998, #117 ) ;
#175 = APPLICATION_CONTEXT ( 'automotive_design' ) ;
#176 = CYLINDRICAL_SURFACE ( 'NONE', #145, 6.249999999999998200 ) ;
#177 = EDGE_CURVE ( 'NONE', #103, #180, #187, .T. ) ;
#178 = DIRECTION ( 'NONE',  ( -8.496118506040342700E-032, 1.224646799147353200E-016, -1.000000000000000000 ) ) ;
#179 = PRODUCT_RELATED_PRODUCT_CATEGORY ( 'part', '', ( #141 ) ) ;
#180 = VERTEX_POINT ( 'NONE', #134 ) ;
#181 = AXIS2_PLACEMENT_3D ( 'NONE', #50, #36, #89 ) ;
#182 = EDGE_CURVE ( 'NONE', #180, #103, #113, .T. ) ;
#183 = CARTESIAN_POINT ( 'NONE',  ( 106.3060967416565200, 32.60842023547015600, 0.0000000000000000000 ) ) ;
#184 = DIRECTION ( 'NONE',  ( -6.167905692361980600E-016, 1.000000000000000000, 0.0000000000000000000 ) ) ;
#185 =( LENGTH_UNIT ( ) NAMED_UNIT ( * ) SI_UNIT ( .MILLI., .METRE. ) );
#186 = CARTESIAN_POINT ( 'NONE',  ( 57.97224564898159100, 26.35842023547016300, 0.0000000000000000000 ) ) ;
#187 = CIRCLE ( 'NONE', #188, 6.250000000000001800 ) ;
#188 = AXIS2_PLACEMENT_3D ( 'NONE', #122, #26, #53 ) ;
#189 = CARTESIAN_POINT ( 'NONE',  ( 106.3060967416565200, 32.60842023547015600, 0.0000000000000000000 ) ) ;
#190 = CARTESIAN_POINT ( 'NONE',  ( 185.1060967416565300, 32.60842023547018400, 0.0000000000000000000 ) ) ;
#191 = AXIS2_PLACEMENT_3D ( 'NONE', #189, #178, #107 ) ;
#192 = ORIENTED_EDGE ( 'NONE', *, *, #177, .F. ) ;
ENDSEC;
END-ISO-10303-21;
