ISO-10303-21;
HEADER;
FILE_DESCRIPTION (( 'STEP AP214' ),
    '1' );
FILE_NAME ('150008.STEP',
    '2019-07-04T06:04:02',
    ( '' ),
    ( '' ),
    'SwSTEP 2.0',
    'SolidWorks 2016',
    '' );
FILE_SCHEMA (( 'AUTOMOTIVE_DESIGN' ));
ENDSEC;

DATA;
#1 = DIRECTION ( 'NONE',  ( 1.000000000000000000, 0.0000000000000000000, 0.0000000000000000000 ) ) ;
#2 = FACE_OUTER_BOUND ( 'NONE', #17, .T. ) ;
#3 = DIRECTION ( 'NONE',  ( -0.0000000000000000000, 0.0000000000000000000, -1.000000000000000000 ) ) ;
#4 =( NAMED_UNIT ( * ) PLANE_ANGLE_UNIT ( ) SI_UNIT ( $, .RADIAN. ) );
#5 = CARTESIAN_POINT ( 'NONE',  ( 126.0379355897025000, 65.21684047094034000, 0.0000000000000000000 ) ) ;
#6 = APPLICATION_PROTOCOL_DEFINITION ( 'draft international standard', 'automotive_design', 1998, #125 ) ;
#7 = EDGE_LOOP ( 'NONE', ( #70, #13, #76 ) ) ;
#8 =( NAMED_UNIT ( * ) SI_UNIT ( $, .STERADIAN. ) SOLID_ANGLE_UNIT ( ) );
#9 = DIRECTION ( 'NONE',  ( -1.000000000000000000, -6.937607244762875000E-016, -0.0000000000000000000 ) ) ;
#10 = PRODUCT_RELATED_PRODUCT_CATEGORY ( 'part', '', ( #184 ) ) ;
#11 = ADVANCED_FACE ( 'NONE', ( #2 ), #174, .T. ) ;
#12 = EDGE_CURVE ( 'NONE', #133, #42, #27, .T. ) ;
#13 = ORIENTED_EDGE ( 'NONE', *, *, #150, .T. ) ;
#14 = ORIENTED_EDGE ( 'NONE', *, *, #192, .T. ) ;
#15 = LINE ( 'NONE', #136, #16 ) ;
#16 = VECTOR ( 'NONE', #63, 1000.000000000000000 ) ;
#17 = EDGE_LOOP ( 'NONE', ( #117, #100, #80, #99 ) ) ;
#18 = EDGE_CURVE ( 'NONE', #178, #97, #162, .T. ) ;
#19 = DIRECTION ( 'NONE',  ( 1.110223024625157300E-015, -1.000000000000000000, 0.0000000000000000000 ) ) ;
#20 = CARTESIAN_POINT ( 'NONE',  ( 115.9444912979631800, 52.71684047094032600, 0.0000000000000000000 ) ) ;
#21 =( GEOMETRIC_REPRESENTATION_CONTEXT ( 3 ) GLOBAL_UNCERTAINTY_ASSIGNED_CONTEXT ( ( #89 ) ) GLOBAL_UNIT_ASSIGNED_CONTEXT ( ( #72, #40, #8 ) ) REPRESENTATION_CONTEXT ( 'NONE', 'WORKASPACE' ) );
#22 = CARTESIAN_POINT ( 'NONE',  ( 123.4943748421477200, 77.71684047094026900, 0.0000000000000000000 ) ) ;
#23 = SPHERICAL_SURFACE ( 'NONE', #164, 89.00000000000001400 ) ;
#24 = CARTESIAN_POINT ( 'NONE',  ( 211.6121936984948200, 65.21684047094031200, 0.0000000000000000000 ) ) ;
#25 = DIRECTION ( 'NONE',  ( -8.496118506040342700E-032, 1.224646799147353200E-016, -1.000000000000000000 ) ) ;
#26 = CARTESIAN_POINT ( 'NONE',  ( 125.7121936984948100, 65.21684047093997100, 0.0000000000000000000 ) ) ;
#27 = CIRCLE ( 'NONE', #77, 12.50000000000000400 ) ;
#28 = DIRECTION ( 'NONE',  ( 1.110223024625157300E-015, -1.000000000000000000, 0.0000000000000000000 ) ) ;
#29 =( NAMED_UNIT ( * ) SI_UNIT ( $, .STERADIAN. ) SOLID_ANGLE_UNIT ( ) );
#30 = EDGE_CURVE ( 'NONE', #97, #175, #92, .T. ) ;
#31 = AXIS2_PLACEMENT_3D ( 'NONE', #126, #170, #28 ) ;
#32 = SURFACE_STYLE_FILL_AREA ( #38 ) ;
#33 = EDGE_CURVE ( 'NONE', #178, #175, #46, .T. ) ;
#34 = AXIS2_PLACEMENT_3D ( 'NONE', #151, #108, #81 ) ;
#35 = DIRECTION ( 'NONE',  ( 0.0000000000000000000, 0.0000000000000000000, -1.000000000000000000 ) ) ;
#36 = DIRECTION ( 'NONE',  ( -6.237208003512115800E-016, 1.000000000000000000, 0.0000000000000000000 ) ) ;
#37 = CIRCLE ( 'NONE', #31, 12.49999999999999100 ) ;
#38 = FILL_AREA_STYLE ('',( #185 ) ) ;
#39 = AXIS2_PLACEMENT_3D ( 'NONE', #24, #180, #64 ) ;
#40 =( NAMED_UNIT ( * ) PLANE_ANGLE_UNIT ( ) SI_UNIT ( $, .RADIAN. ) );
#41 =( GEOMETRIC_REPRESENTATION_CONTEXT ( 3 ) GLOBAL_UNCERTAINTY_ASSIGNED_CONTEXT ( ( #157 ) ) GLOBAL_UNIT_ASSIGNED_CONTEXT ( ( #57, #4, #168 ) ) REPRESENTATION_CONTEXT ( 'NONE', 'WORKASPACE' ) );
#42 = VERTEX_POINT ( 'NONE', #109 ) ;
#43 = EDGE_CURVE ( 'NONE', #133, #97, #15, .T. ) ;
#44 = FACE_OUTER_BOUND ( 'NONE', #7, .T. ) ;
#45 = SPHERICAL_SURFACE ( 'NONE', #186, 240.0000000000000300 ) ;
#46 = CIRCLE ( 'NONE', #47, 89.00000000000000000 ) ;
#47 = AXIS2_PLACEMENT_3D ( 'NONE', #176, #25, #65 ) ;
#48 = ADVANCED_BREP_SHAPE_REPRESENTATION ( '150008', ( #160, #107 ), #41 ) ;
#49 = DIRECTION ( 'NONE',  ( -1.000000000000000000, -6.937607244762875000E-016, -0.0000000000000000000 ) ) ;
#50 = DIRECTION ( 'NONE',  ( -1.000000000000000000, -6.937607244762875000E-016, -0.0000000000000000000 ) ) ;
#51 = APPLICATION_PROTOCOL_DEFINITION ( 'draft international standard', 'automotive_design', 1998, #172 ) ;
#52 = SURFACE_SIDE_STYLE ('',( #32 ) ) ;
#53 = UNCERTAINTY_MEASURE_WITH_UNIT (LENGTH_MEASURE( 1.000000000000000100E-005 ), #115, 'distance_accuracy_value', 'NONE');
#54 = SURFACE_STYLE_USAGE ( .BOTH. , #52 ) ;
#55 = COLOUR_RGB ( '',1.000000000000000000, 1.000000000000000000, 1.000000000000000000 ) ;
#56 = SURFACE_STYLE_USAGE ( .BOTH. , #159 ) ;
#57 =( LENGTH_UNIT ( ) NAMED_UNIT ( * ) SI_UNIT ( .MILLI., .METRE. ) );
#58 = PRESENTATION_LAYER_ASSIGNMENT (  '', '', ( #116 ) ) ;
#59 = VECTOR ( 'NONE', #49, 1000.000000000000000 ) ;
#60 = AXIS2_PLACEMENT_3D ( 'NONE', #179, #90, #1 ) ;
#61 = CYLINDRICAL_SURFACE ( 'NONE', #34, 12.49999999999999600 ) ;
#62 = ORIENTED_EDGE ( 'NONE', *, *, #12, .F. ) ;
#63 = DIRECTION ( 'NONE',  ( -1.000000000000000000, -6.937607244762875000E-016, -0.0000000000000000000 ) ) ;
#64 = DIRECTION ( 'NONE',  ( 1.000000000000000000, 0.0000000000000000000, 0.0000000000000000000 ) ) ;
#65 = DIRECTION ( 'NONE',  ( 0.0000000000000000000, 1.000000000000000000, 1.224646799147353200E-016 ) ) ;
#66 = EDGE_CURVE ( 'NONE', #42, #178, #188, .T. ) ;
#67 = DIRECTION ( 'NONE',  ( 0.0000000000000000000, -1.000000000000000000, 0.0000000000000000000 ) ) ;
#68 = CARTESIAN_POINT ( 'NONE',  ( 0.0000000000000000000, 0.0000000000000000000, 0.0000000000000000000 ) ) ;
#69 =( GEOMETRIC_REPRESENTATION_CONTEXT ( 3 ) GLOBAL_UNCERTAINTY_ASSIGNED_CONTEXT ( ( #53 ) ) GLOBAL_UNIT_ASSIGNED_CONTEXT ( ( #115, #112, #29 ) ) REPRESENTATION_CONTEXT ( 'NONE', 'WORKASPACE' ) );
#70 = ORIENTED_EDGE ( 'NONE', *, *, #140, .F. ) ;
#71 = FILL_AREA_STYLE ('',( #139 ) ) ;
#72 =( LENGTH_UNIT ( ) NAMED_UNIT ( * ) SI_UNIT ( .MILLI., .METRE. ) );
#73 = SHAPE_DEFINITION_REPRESENTATION ( #93, #48 ) ;
#74 = ADVANCED_FACE ( 'NONE', ( #44 ), #155, .F. ) ;
#75 = FACE_OUTER_BOUND ( 'NONE', #118, .T. ) ;
#76 = ORIENTED_EDGE ( 'NONE', *, *, #87, .F. ) ;
#77 = AXIS2_PLACEMENT_3D ( 'NONE', #110, #50, #67 ) ;
#78 = DIRECTION ( 'NONE',  ( 1.110223024625156900E-015, -1.000000000000000000, 0.0000000000000000000 ) ) ;
#79 = EDGE_LOOP ( 'NONE', ( #158, #62, #152 ) ) ;
#80 = ORIENTED_EDGE ( 'NONE', *, *, #66, .T. ) ;
#81 = DIRECTION ( 'NONE',  ( 1.110223024625156900E-015, -1.000000000000000000, 0.0000000000000000000 ) ) ;
#82 = ORIENTED_EDGE ( 'NONE', *, *, #33, .F. ) ;
#83 = CARTESIAN_POINT ( 'NONE',  ( 211.6121936984948200, 65.21684047094031200, 0.0000000000000000000 ) ) ;
#84 = ORIENTED_EDGE ( 'NONE', *, *, #30, .T. ) ;
#85 = ORIENTED_EDGE ( 'NONE', *, *, #30, .F. ) ;
#86 = EDGE_LOOP ( 'NONE', ( #14, #182, #85 ) ) ;
#87 = EDGE_CURVE ( 'NONE', #133, #161, #135, .T. ) ;
#88 = CIRCLE ( 'NONE', #102, 12.50000000000000400 ) ;
#89 = UNCERTAINTY_MEASURE_WITH_UNIT (LENGTH_MEASURE( 1.000000000000000100E-005 ), #72, 'distance_accuracy_value', 'NONE');
#90 = DIRECTION ( 'NONE',  ( 0.0000000000000000000, -0.0000000000000000000, 1.000000000000000000 ) ) ;
#91 = AXIS2_PLACEMENT_3D ( 'NONE', #181, #94, #19 ) ;
#92 = CIRCLE ( 'NONE', #39, 89.00000000000002800 ) ;
#93 = PRODUCT_DEFINITION_SHAPE ( 'NONE', 'NONE',  #129 ) ;
#94 = DIRECTION ( 'NONE',  ( -1.000000000000000000, -6.937607244762875000E-016, -0.0000000000000000000 ) ) ;
#95 = DIRECTION ( 'NONE',  ( -6.938893903907228400E-016, 1.000000000000000000, 0.0000000000000000000 ) ) ;
#96 = PRODUCT_CONTEXT ( 'NONE', #172, 'mechanical' ) ;
#97 = VERTEX_POINT ( 'NONE', #22 ) ;
#98 = DIRECTION ( 'NONE',  ( 1.000000000000000000, 0.0000000000000000000, 0.0000000000000000000 ) ) ;
#99 = ORIENTED_EDGE ( 'NONE', *, *, #192, .F. ) ;
#100 = ORIENTED_EDGE ( 'NONE', *, *, #12, .T. ) ;
#101 = ADVANCED_FACE ( 'NONE', ( #169 ), #23, .T. ) ;
#102 = AXIS2_PLACEMENT_3D ( 'NONE', #5, #9, #114 ) ;
#103 = PRESENTATION_STYLE_ASSIGNMENT (( #56 ) ) ;
#104 = ADVANCED_FACE ( 'NONE', ( #75 ), #128, .T. ) ;
#105 = ORIENTED_EDGE ( 'NONE', *, *, #140, .T. ) ;
#106 = AXIS2_PLACEMENT_3D ( 'NONE', #121, #35, #165 ) ;
#107 = AXIS2_PLACEMENT_3D ( 'NONE', #68, #167, #98 ) ;
#108 = DIRECTION ( 'NONE',  ( -1.000000000000000000, -6.937607244762875000E-016, -0.0000000000000000000 ) ) ;
#109 = CARTESIAN_POINT ( 'NONE',  ( 126.0379355897025000, 52.71684047094007000, -1.530808498934177300E-015 ) ) ;
#110 = CARTESIAN_POINT ( 'NONE',  ( 126.0379355897025000, 65.21684047094034000, 0.0000000000000000000 ) ) ;
#111 = ORIENTED_EDGE ( 'NONE', *, *, #66, .F. ) ;
#112 =( NAMED_UNIT ( * ) PLANE_ANGLE_UNIT ( ) SI_UNIT ( $, .RADIAN. ) );
#113 = CARTESIAN_POINT ( 'NONE',  ( 123.4943748421477400, 52.71684047094031200, -1.530808498934184600E-015 ) ) ;
#114 = DIRECTION ( 'NONE',  ( 0.0000000000000000000, -1.000000000000000000, 0.0000000000000000000 ) ) ;
#115 =( LENGTH_UNIT ( ) NAMED_UNIT ( * ) SI_UNIT ( .MILLI., .METRE. ) );
#116 = STYLED_ITEM ( 'NONE', ( #103 ), #48 ) ;
#117 = ORIENTED_EDGE ( 'NONE', *, *, #43, .F. ) ;
#118 = EDGE_LOOP ( 'NONE', ( #82, #171, #84 ) ) ;
#119 = DIRECTION ( 'NONE',  ( -1.000000000000000000, -6.937607244762875000E-016, -0.0000000000000000000 ) ) ;
#120 = PRESENTATION_STYLE_ASSIGNMENT (( #54 ) ) ;
#121 = CARTESIAN_POINT ( 'NONE',  ( 365.7121936984948400, 65.21684047094011300, 0.0000000000000000000 ) ) ;
#122 = DIRECTION ( 'NONE',  ( -0.0000000000000000000, 0.0000000000000000000, -1.000000000000000000 ) ) ;
#123 = CARTESIAN_POINT ( 'NONE',  ( 365.7121936984948400, 65.21684047094011300, 0.0000000000000000000 ) ) ;
#124 = MECHANICAL_DESIGN_GEOMETRIC_PRESENTATION_REPRESENTATION (  '', ( #116 ), #69 ) ;
#125 = APPLICATION_CONTEXT ( 'automotive_design' ) ;
#126 = CARTESIAN_POINT ( 'NONE',  ( 123.4943748421477400, 65.21684047094032600, 0.0000000000000000000 ) ) ;
#127 = CARTESIAN_POINT ( 'NONE',  ( 122.6121936984948100, 65.21684047094025500, 0.0000000000000000000 ) ) ;
#128 = SPHERICAL_SURFACE ( 'NONE', #134, 89.00000000000001400 ) ;
#129 = PRODUCT_DEFINITION ( 'Î´Öª', '', #190, #149 ) ;
#130 = ADVANCED_FACE ( 'NONE', ( #132 ), #61, .T. ) ;
#131 = ADVANCED_FACE ( 'NONE', ( #148 ), #45, .F. ) ;
#132 = FACE_OUTER_BOUND ( 'NONE', #144, .T. ) ;
#133 = VERTEX_POINT ( 'NONE', #137 ) ;
#134 = AXIS2_PLACEMENT_3D ( 'NONE', #154, #122, #36 ) ;
#135 = CIRCLE ( 'NONE', #60, 240.0000000000000000 ) ;
#136 = CARTESIAN_POINT ( 'NONE',  ( 115.9444912979631500, 77.71684047094032600, 1.530808498934191100E-015 ) ) ;
#137 = CARTESIAN_POINT ( 'NONE',  ( 126.0379355897025000, 77.71684047094022700, 0.0000000000000000000 ) ) ;
#138 = DIRECTION ( 'NONE',  ( 0.0000000000000000000, 1.000000000000000000, 1.224646799147353200E-016 ) ) ;
#139 = FILL_AREA_STYLE_COLOUR ( '', #145 ) ;
#140 = EDGE_CURVE ( 'NONE', #42, #133, #88, .T. ) ;
#141 = DIRECTION ( 'NONE',  ( 0.0000000000000000000, 0.0000000000000000000, -1.000000000000000000 ) ) ;
#142 = STYLED_ITEM ( 'NONE', ( #120 ), #160 ) ;
#143 = SURFACE_STYLE_FILL_AREA ( #71 ) ;
#144 = EDGE_LOOP ( 'NONE', ( #105, #191, #156, #111 ) ) ;
#145 = COLOUR_RGB ( '',1.000000000000000000, 1.000000000000000000, 1.000000000000000000 ) ;
#146 = CLOSED_SHELL ( 'NONE', ( #130, #74, #101, #104, #131, #11 ) ) ;
#147 = CARTESIAN_POINT ( 'NONE',  ( 115.9444912979631700, 65.21684047094032600, 0.0000000000000000000 ) ) ;
#148 = FACE_OUTER_BOUND ( 'NONE', #79, .T. ) ;
#149 = PRODUCT_DEFINITION_CONTEXT ( 'detailed design', #125, 'design' ) ;
#150 = EDGE_CURVE ( 'NONE', #42, #161, #163, .T. ) ;
#151 = CARTESIAN_POINT ( 'NONE',  ( 115.9444912979631700, 65.21684047094032600, 0.0000000000000000000 ) ) ;
#152 = ORIENTED_EDGE ( 'NONE', *, *, #87, .T. ) ;
#153 = AXIS2_PLACEMENT_3D ( 'NONE', #187, #183, #138 ) ;
#154 = CARTESIAN_POINT ( 'NONE',  ( 211.6121936984948200, 65.21684047094031200, 0.0000000000000000000 ) ) ;
#155 = SPHERICAL_SURFACE ( 'NONE', #106, 240.0000000000000300 ) ;
#156 = ORIENTED_EDGE ( 'NONE', *, *, #18, .F. ) ;
#157 = UNCERTAINTY_MEASURE_WITH_UNIT (LENGTH_MEASURE( 1.000000000000000100E-005 ), #57, 'distance_accuracy_value', 'NONE');
#158 = ORIENTED_EDGE ( 'NONE', *, *, #150, .F. ) ;
#159 = SURFACE_SIDE_STYLE ('',( #143 ) ) ;
#160 = MANIFOLD_SOLID_BREP ( 'Ðý×ª1', #146 ) ;
#161 = VERTEX_POINT ( 'NONE', #26 ) ;
#162 = CIRCLE ( 'NONE', #91, 12.49999999999999100 ) ;
#163 = CIRCLE ( 'NONE', #153, 240.0000000000000000 ) ;
#164 = AXIS2_PLACEMENT_3D ( 'NONE', #83, #3, #166 ) ;
#165 = DIRECTION ( 'NONE',  ( -6.938893903907228400E-016, 1.000000000000000000, 0.0000000000000000000 ) ) ;
#166 = DIRECTION ( 'NONE',  ( -6.237208003512115800E-016, 1.000000000000000000, 0.0000000000000000000 ) ) ;
#167 = DIRECTION ( 'NONE',  ( 0.0000000000000000000, 0.0000000000000000000, 1.000000000000000000 ) ) ;
#168 =( NAMED_UNIT ( * ) SI_UNIT ( $, .STERADIAN. ) SOLID_ANGLE_UNIT ( ) );
#169 = FACE_OUTER_BOUND ( 'NONE', #86, .T. ) ;
#170 = DIRECTION ( 'NONE',  ( -1.000000000000000000, -6.937607244762875000E-016, -0.0000000000000000000 ) ) ;
#171 = ORIENTED_EDGE ( 'NONE', *, *, #18, .T. ) ;
#172 = APPLICATION_CONTEXT ( 'automotive_design' ) ;
#173 = PRESENTATION_LAYER_ASSIGNMENT (  '', '', ( #142 ) ) ;
#174 = CYLINDRICAL_SURFACE ( 'NONE', #189, 12.49999999999999600 ) ;
#175 = VERTEX_POINT ( 'NONE', #127 ) ;
#176 = CARTESIAN_POINT ( 'NONE',  ( 211.6121936984948200, 65.21684047094031200, 0.0000000000000000000 ) ) ;
#177 = MECHANICAL_DESIGN_GEOMETRIC_PRESENTATION_REPRESENTATION (  '', ( #142 ), #21 ) ;
#178 = VERTEX_POINT ( 'NONE', #113 ) ;
#179 = CARTESIAN_POINT ( 'NONE',  ( 365.7121936984948400, 65.21684047094011300, 0.0000000000000000000 ) ) ;
#180 = DIRECTION ( 'NONE',  ( -0.0000000000000000000, 0.0000000000000000000, 1.000000000000000000 ) ) ;
#181 = CARTESIAN_POINT ( 'NONE',  ( 123.4943748421477400, 65.21684047094032600, 0.0000000000000000000 ) ) ;
#182 = ORIENTED_EDGE ( 'NONE', *, *, #33, .T. ) ;
#183 = DIRECTION ( 'NONE',  ( -8.496118506040342700E-032, 1.224646799147353200E-016, -1.000000000000000000 ) ) ;
#184 = PRODUCT ( '150008', '150008', '', ( #96 ) ) ;
#185 = FILL_AREA_STYLE_COLOUR ( '', #55 ) ;
#186 = AXIS2_PLACEMENT_3D ( 'NONE', #123, #141, #95 ) ;
#187 = CARTESIAN_POINT ( 'NONE',  ( 365.7121936984948400, 65.21684047094011300, 0.0000000000000000000 ) ) ;
#188 = LINE ( 'NONE', #20, #59 ) ;
#189 = AXIS2_PLACEMENT_3D ( 'NONE', #147, #119, #78 ) ;
#190 = PRODUCT_DEFINITION_FORMATION_WITH_SPECIFIED_SOURCE ( 'ÈÎºÎ', '', #184, .NOT_KNOWN. ) ;
#191 = ORIENTED_EDGE ( 'NONE', *, *, #43, .T. ) ;
#192 = EDGE_CURVE ( 'NONE', #97, #178, #37, .T. ) ;
ENDSEC;
END-ISO-10303-21;
