ISO-10303-21;
HEADER;
FILE_DESCRIPTION (( 'STEP AP214' ),
    '1' );
FILE_NAME ('150014.STEP',
    '2019-07-04T07:42:04',
    ( '' ),
    ( '' ),
    'SwSTEP 2.0',
    'SolidWorks 2016',
    '' );
FILE_SCHEMA (( 'AUTOMOTIVE_DESIGN' ));
ENDSEC;

DATA;
#1 = CARTESIAN_POINT ( 'NONE',  ( 210.3554213155558200, 65.21684047094032600, 0.0000000000000000000 ) ) ;
#2 = UNCERTAINTY_MEASURE_WITH_UNIT (LENGTH_MEASURE( 1.000000000000000100E-005 ), #42, 'distance_accuracy_value', 'NONE');
#3 = VECTOR ( 'NONE', #134, 1000.000000000000000 ) ;
#4 = SURFACE_STYLE_USAGE ( .BOTH. , #100 ) ;
#5 = FILL_AREA_STYLE_COLOUR ( '', #28 ) ;
#6 = DIRECTION ( 'NONE',  ( 0.0000000000000000000, 1.000000000000000000, 1.224646799147353500E-016 ) ) ;
#7 = ADVANCED_FACE ( 'NONE', ( #109 ), #14, .F. ) ;
#8 = ORIENTED_EDGE ( 'NONE', *, *, #192, .T. ) ;
#9 = DIRECTION ( 'NONE',  ( -0.0000000000000000000, 0.0000000000000000000, -1.000000000000000000 ) ) ;
#10 = AXIS2_PLACEMENT_3D ( 'NONE', #130, #102, #18 ) ;
#11 = EDGE_CURVE ( 'NONE', #177, #145, #98, .T. ) ;
#12 = FACE_OUTER_BOUND ( 'NONE', #72, .T. ) ;
#13 = EDGE_LOOP ( 'NONE', ( #43, #159, #175, #113 ) ) ;
#14 = SPHERICAL_SURFACE ( 'NONE', #71, 81.50000000000004300 ) ;
#15 =( GEOMETRIC_REPRESENTATION_CONTEXT ( 3 ) GLOBAL_UNCERTAINTY_ASSIGNED_CONTEXT ( ( #178 ) ) GLOBAL_UNIT_ASSIGNED_CONTEXT ( ( #157, #74, #77 ) ) REPRESENTATION_CONTEXT ( 'NONE', 'WORKASPACE' ) );
#16 = EDGE_CURVE ( 'NONE', #181, #177, #168, .T. ) ;
#17 = SPHERICAL_SURFACE ( 'NONE', #44, 33.60000000000001600 ) ;
#18 = DIRECTION ( 'NONE',  ( -6.811184200154331800E-016, 1.000000000000000000, 0.0000000000000000000 ) ) ;
#19 = APPLICATION_PROTOCOL_DEFINITION ( 'draft international standard', 'automotive_design', 1998, #156 ) ;
#20 =( GEOMETRIC_REPRESENTATION_CONTEXT ( 3 ) GLOBAL_UNCERTAINTY_ASSIGNED_CONTEXT ( ( #2 ) ) GLOBAL_UNIT_ASSIGNED_CONTEXT ( ( #42, #129, #146 ) ) REPRESENTATION_CONTEXT ( 'NONE', 'WORKASPACE' ) );
#21 = CARTESIAN_POINT ( 'NONE',  ( 128.7604872120053900, 65.21684047094034000, 0.0000000000000000000 ) ) ;
#22 = ADVANCED_FACE ( 'NONE', ( #12 ), #94, .T. ) ;
#23 = CIRCLE ( 'NONE', #73, 81.50000000000004300 ) ;
#24 = ORIENTED_EDGE ( 'NONE', *, *, #176, .F. ) ;
#25 = CARTESIAN_POINT ( 'NONE',  ( 131.1070814275808200, 46.19184047094035600, -2.329890535377828900E-015 ) ) ;
#26 = EDGE_CURVE ( 'NONE', #145, #115, #147, .T. ) ;
#27 = ADVANCED_FACE ( 'NONE', ( #96 ), #17, .T. ) ;
#28 = COLOUR_RGB ( '',1.000000000000000000, 1.000000000000000000, 1.000000000000000000 ) ;
#29 = CIRCLE ( 'NONE', #83, 19.02499999999995900 ) ;
#30 = EDGE_CURVE ( 'NONE', #188, #181, #91, .T. ) ;
#31 = CARTESIAN_POINT ( 'NONE',  ( 122.8554213155558000, 65.21684047094031200, 0.0000000000000000000 ) ) ;
#32 = DIRECTION ( 'NONE',  ( 0.0000000000000000000, -1.000000000000000000, 0.0000000000000000000 ) ) ;
#33 = CARTESIAN_POINT ( 'NONE',  ( 210.3554213155558200, 65.21684047094032600, 0.0000000000000000000 ) ) ;
#34 = MECHANICAL_DESIGN_GEOMETRIC_PRESENTATION_REPRESENTATION (  '', ( #69 ), #15 ) ;
#35 = SURFACE_STYLE_FILL_AREA ( #126 ) ;
#36 = EDGE_CURVE ( 'NONE', #188, #145, #54, .T. ) ;
#37 = PRODUCT_DEFINITION_CONTEXT ( 'detailed design', #128, 'design' ) ;
#38 = EDGE_CURVE ( 'NONE', #181, #188, #29, .T. ) ;
#39 =( LENGTH_UNIT ( ) NAMED_UNIT ( * ) SI_UNIT ( .MILLI., .METRE. ) );
#40 = DIRECTION ( 'NONE',  ( 0.0000000000000000000, -0.0000000000000000000, 1.000000000000000000 ) ) ;
#41 =( NAMED_UNIT ( * ) PLANE_ANGLE_UNIT ( ) SI_UNIT ( $, .RADIAN. ) );
#42 =( LENGTH_UNIT ( ) NAMED_UNIT ( * ) SI_UNIT ( .MILLI., .METRE. ) );
#43 = ORIENTED_EDGE ( 'NONE', *, *, #30, .T. ) ;
#44 = AXIS2_PLACEMENT_3D ( 'NONE', #162, #67, #164 ) ;
#45 = UNCERTAINTY_MEASURE_WITH_UNIT (LENGTH_MEASURE( 1.000000000000000100E-005 ), #39, 'distance_accuracy_value', 'NONE');
#46 =( GEOMETRIC_REPRESENTATION_CONTEXT ( 3 ) GLOBAL_UNCERTAINTY_ASSIGNED_CONTEXT ( ( #45 ) ) GLOBAL_UNIT_ASSIGNED_CONTEXT ( ( #39, #41, #186 ) ) REPRESENTATION_CONTEXT ( 'NONE', 'WORKASPACE' ) );
#47 = DIRECTION ( 'NONE',  ( -8.260587980841933800E-016, 1.000000000000000000, 0.0000000000000000000 ) ) ;
#48 = AXIS2_PLACEMENT_3D ( 'NONE', #78, #85, #117 ) ;
#49 = DIRECTION ( 'NONE',  ( -1.000000000000000000, -6.937607244762875000E-016, -0.0000000000000000000 ) ) ;
#50 = DIRECTION ( 'NONE',  ( -8.496118506040342700E-032, 1.224646799147353200E-016, -1.000000000000000000 ) ) ;
#51 = EDGE_CURVE ( 'NONE', #188, #123, #173, .T. ) ;
#52 = ORIENTED_EDGE ( 'NONE', *, *, #53, .F. ) ;
#53 = EDGE_CURVE ( 'NONE', #177, #115, #131, .T. ) ;
#54 = LINE ( 'NONE', #111, #3 ) ;
#55 = FACE_OUTER_BOUND ( 'NONE', #153, .T. ) ;
#56 = FILL_AREA_STYLE ('',( #140 ) ) ;
#57 = COLOUR_RGB ( '',1.000000000000000000, 1.000000000000000000, 1.000000000000000000 ) ;
#58 = APPLICATION_PROTOCOL_DEFINITION ( 'draft international standard', 'automotive_design', 1998, #128 ) ;
#59 = CARTESIAN_POINT ( 'NONE',  ( 156.4554213155558100, 65.21684047094034000, 0.0000000000000000000 ) ) ;
#60 = PRODUCT_DEFINITION ( 'Î´Öª', '', #155, #37 ) ;
#61 = PRODUCT_CONTEXT ( 'NONE', #156, 'mechanical' ) ;
#62 = AXIS2_PLACEMENT_3D ( 'NONE', #92, #49, #149 ) ;
#63 = STYLED_ITEM ( 'NONE', ( #114 ), #171 ) ;
#64 = ORIENTED_EDGE ( 'NONE', *, *, #36, .T. ) ;
#65 = SURFACE_STYLE_FILL_AREA ( #56 ) ;
#66 = ORIENTED_EDGE ( 'NONE', *, *, #16, .F. ) ;
#67 = DIRECTION ( 'NONE',  ( -0.0000000000000000000, 0.0000000000000000000, -1.000000000000000000 ) ) ;
#68 = PRESENTATION_STYLE_ASSIGNMENT (( #4 ) ) ;
#69 = STYLED_ITEM ( 'NONE', ( #68 ), #184 ) ;
#70 = CLOSED_SHELL ( 'NONE', ( #187, #7, #27, #22, #132, #160 ) ) ;
#71 = AXIS2_PLACEMENT_3D ( 'NONE', #104, #105, #107 ) ;
#72 = EDGE_LOOP ( 'NONE', ( #139, #8, #172 ) ) ;
#73 = AXIS2_PLACEMENT_3D ( 'NONE', #1, #40, #101 ) ;
#74 =( NAMED_UNIT ( * ) PLANE_ANGLE_UNIT ( ) SI_UNIT ( $, .RADIAN. ) );
#75 = DIRECTION ( 'NONE',  ( 1.000000000000000000, 0.0000000000000000000, 0.0000000000000000000 ) ) ;
#76 = SURFACE_STYLE_USAGE ( .BOTH. , #143 ) ;
#77 =( NAMED_UNIT ( * ) SI_UNIT ( $, .STERADIAN. ) SOLID_ANGLE_UNIT ( ) );
#78 = CARTESIAN_POINT ( 'NONE',  ( 0.0000000000000000000, 0.0000000000000000000, 0.0000000000000000000 ) ) ;
#79 = ORIENTED_EDGE ( 'NONE', *, *, #51, .T. ) ;
#80 = CARTESIAN_POINT ( 'NONE',  ( 131.1070814275808200, 65.21684047094034000, 0.0000000000000000000 ) ) ;
#81 = DIRECTION ( 'NONE',  ( 0.0000000000000000000, -1.000000000000000000, 0.0000000000000000000 ) ) ;
#82 = AXIS2_PLACEMENT_3D ( 'NONE', #93, #191, #152 ) ;
#83 = AXIS2_PLACEMENT_3D ( 'NONE', #135, #165, #81 ) ;
#84 = EDGE_LOOP ( 'NONE', ( #179, #79, #24 ) ) ;
#85 = DIRECTION ( 'NONE',  ( 0.0000000000000000000, 0.0000000000000000000, 1.000000000000000000 ) ) ;
#86 = FACE_OUTER_BOUND ( 'NONE', #13, .T. ) ;
#87 = CARTESIAN_POINT ( 'NONE',  ( 131.1070814275808200, 84.24184047094026100, 0.0000000000000000000 ) ) ;
#88 = AXIS2_PLACEMENT_3D ( 'NONE', #59, #185, #75 ) ;
#89 = AXIS2_PLACEMENT_3D ( 'NONE', #122, #9, #47 ) ;
#90 = ORIENTED_EDGE ( 'NONE', *, *, #176, .T. ) ;
#91 = CIRCLE ( 'NONE', #112, 19.02499999999995900 ) ;
#92 = CARTESIAN_POINT ( 'NONE',  ( 128.7604872120053900, 65.21684047094034000, 0.0000000000000000000 ) ) ;
#93 = CARTESIAN_POINT ( 'NONE',  ( 156.4554213155558100, 65.21684047094034000, 0.0000000000000000000 ) ) ;
#94 = SPHERICAL_SURFACE ( 'NONE', #89, 33.60000000000001600 ) ;
#95 = AXIS2_PLACEMENT_3D ( 'NONE', #182, #121, #103 ) ;
#96 = FACE_OUTER_BOUND ( 'NONE', #154, .T. ) ;
#97 = AXIS2_PLACEMENT_3D ( 'NONE', #33, #50, #6 ) ;
#98 = CIRCLE ( 'NONE', #62, 19.02499999999998800 ) ;
#99 = ORIENTED_EDGE ( 'NONE', *, *, #26, .T. ) ;
#100 = SURFACE_SIDE_STYLE ('',( #65 ) ) ;
#101 = DIRECTION ( 'NONE',  ( 1.000000000000000000, 0.0000000000000000000, 0.0000000000000000000 ) ) ;
#102 = DIRECTION ( 'NONE',  ( 0.0000000000000000000, 0.0000000000000000000, -1.000000000000000000 ) ) ;
#103 = DIRECTION ( 'NONE',  ( 7.294500818824955000E-016, -1.000000000000000000, 0.0000000000000000000 ) ) ;
#104 = CARTESIAN_POINT ( 'NONE',  ( 210.3554213155558200, 65.21684047094032600, 0.0000000000000000000 ) ) ;
#105 = DIRECTION ( 'NONE',  ( 0.0000000000000000000, 0.0000000000000000000, -1.000000000000000000 ) ) ;
#106 = EDGE_LOOP ( 'NONE', ( #124, #136, #90 ) ) ;
#107 = DIRECTION ( 'NONE',  ( -6.811184200154331800E-016, 1.000000000000000000, 0.0000000000000000000 ) ) ;
#108 = FACE_OUTER_BOUND ( 'NONE', #106, .T. ) ;
#109 = FACE_OUTER_BOUND ( 'NONE', #84, .T. ) ;
#110 = PRESENTATION_LAYER_ASSIGNMENT (  '', '', ( #69 ) ) ;
#111 = CARTESIAN_POINT ( 'NONE',  ( 115.9444912979631800, 46.19184047094035600, 0.0000000000000000000 ) ) ;
#112 = AXIS2_PLACEMENT_3D ( 'NONE', #80, #151, #32 ) ;
#113 = ORIENTED_EDGE ( 'NONE', *, *, #36, .F. ) ;
#114 = PRESENTATION_STYLE_ASSIGNMENT (( #76 ) ) ;
#115 = VERTEX_POINT ( 'NONE', #31 ) ;
#116 = DIRECTION ( 'NONE',  ( -1.000000000000000000, -6.937607244762875000E-016, -0.0000000000000000000 ) ) ;
#117 = DIRECTION ( 'NONE',  ( 1.000000000000000000, 0.0000000000000000000, 0.0000000000000000000 ) ) ;
#118 = DIRECTION ( 'NONE',  ( -1.000000000000000000, -6.937607244762875000E-016, -0.0000000000000000000 ) ) ;
#119 = SPHERICAL_SURFACE ( 'NONE', #10, 81.50000000000004300 ) ;
#120 = CARTESIAN_POINT ( 'NONE',  ( 115.9444912979631700, 65.21684047094032600, 0.0000000000000000000 ) ) ;
#121 = DIRECTION ( 'NONE',  ( -1.000000000000000000, -6.937607244762875000E-016, -0.0000000000000000000 ) ) ;
#122 = CARTESIAN_POINT ( 'NONE',  ( 156.4554213155558100, 65.21684047094034000, 0.0000000000000000000 ) ) ;
#123 = VERTEX_POINT ( 'NONE', #163 ) ;
#124 = ORIENTED_EDGE ( 'NONE', *, *, #51, .F. ) ;
#125 = AXIS2_PLACEMENT_3D ( 'NONE', #21, #116, #170 ) ;
#126 = FILL_AREA_STYLE ('',( #5 ) ) ;
#127 = ORIENTED_EDGE ( 'NONE', *, *, #38, .T. ) ;
#128 = APPLICATION_CONTEXT ( 'automotive_design' ) ;
#129 =( NAMED_UNIT ( * ) PLANE_ANGLE_UNIT ( ) SI_UNIT ( $, .RADIAN. ) );
#130 = CARTESIAN_POINT ( 'NONE',  ( 210.3554213155558200, 65.21684047094032600, 0.0000000000000000000 ) ) ;
#131 = CIRCLE ( 'NONE', #88, 33.60000000000001600 ) ;
#132 = ADVANCED_FACE ( 'NONE', ( #108 ), #119, .F. ) ;
#133 = ORIENTED_EDGE ( 'NONE', *, *, #11, .F. ) ;
#134 = DIRECTION ( 'NONE',  ( -1.000000000000000000, -6.937607244762875000E-016, -0.0000000000000000000 ) ) ;
#135 = CARTESIAN_POINT ( 'NONE',  ( 131.1070814275808200, 65.21684047094034000, 0.0000000000000000000 ) ) ;
#136 = ORIENTED_EDGE ( 'NONE', *, *, #38, .F. ) ;
#137 = PRODUCT ( '150014', '150014', '', ( #61 ) ) ;
#138 = CYLINDRICAL_SURFACE ( 'NONE', #148, 19.02499999999997400 ) ;
#139 = ORIENTED_EDGE ( 'NONE', *, *, #26, .F. ) ;
#140 = FILL_AREA_STYLE_COLOUR ( '', #57 ) ;
#141 = SHAPE_DEFINITION_REPRESENTATION ( #144, #184 ) ;
#142 = CARTESIAN_POINT ( 'NONE',  ( 128.7604872120053900, 84.24184047094034600, 0.0000000000000000000 ) ) ;
#143 = SURFACE_SIDE_STYLE ('',( #35 ) ) ;
#144 = PRODUCT_DEFINITION_SHAPE ( 'NONE', 'NONE',  #60 ) ;
#145 = VERTEX_POINT ( 'NONE', #183 ) ;
#146 =( NAMED_UNIT ( * ) SI_UNIT ( $, .STERADIAN. ) SOLID_ANGLE_UNIT ( ) );
#147 = CIRCLE ( 'NONE', #82, 33.60000000000001600 ) ;
#148 = AXIS2_PLACEMENT_3D ( 'NONE', #120, #118, #169 ) ;
#149 = DIRECTION ( 'NONE',  ( 0.0000000000000000000, -1.000000000000000000, 0.0000000000000000000 ) ) ;
#150 = CIRCLE ( 'NONE', #125, 19.02499999999998800 ) ;
#151 = DIRECTION ( 'NONE',  ( -1.000000000000000000, -6.937607244762875000E-016, -0.0000000000000000000 ) ) ;
#152 = DIRECTION ( 'NONE',  ( 0.0000000000000000000, 1.000000000000000000, 1.224646799147353500E-016 ) ) ;
#153 = EDGE_LOOP ( 'NONE', ( #66, #127, #64, #133 ) ) ;
#154 = EDGE_LOOP ( 'NONE', ( #167, #99, #52 ) ) ;
#155 = PRODUCT_DEFINITION_FORMATION_WITH_SPECIFIED_SOURCE ( 'ÈÎºÎ', '', #137, .NOT_KNOWN. ) ;
#156 = APPLICATION_CONTEXT ( 'automotive_design' ) ;
#157 =( LENGTH_UNIT ( ) NAMED_UNIT ( * ) SI_UNIT ( .MILLI., .METRE. ) );
#158 = CYLINDRICAL_SURFACE ( 'NONE', #95, 19.02499999999997400 ) ;
#159 = ORIENTED_EDGE ( 'NONE', *, *, #16, .T. ) ;
#160 = ADVANCED_FACE ( 'NONE', ( #55 ), #158, .T. ) ;
#161 = PRODUCT_RELATED_PRODUCT_CATEGORY ( 'part', '', ( #137 ) ) ;
#162 = CARTESIAN_POINT ( 'NONE',  ( 156.4554213155558100, 65.21684047094034000, 0.0000000000000000000 ) ) ;
#163 = CARTESIAN_POINT ( 'NONE',  ( 128.8554213155557900, 65.21684047094026900, 0.0000000000000000000 ) ) ;
#164 = DIRECTION ( 'NONE',  ( -8.260587980841933800E-016, 1.000000000000000000, 0.0000000000000000000 ) ) ;
#165 = DIRECTION ( 'NONE',  ( -1.000000000000000000, -6.937607244762875000E-016, -0.0000000000000000000 ) ) ;
#166 = VECTOR ( 'NONE', #189, 1000.000000000000000 ) ;
#167 = ORIENTED_EDGE ( 'NONE', *, *, #11, .T. ) ;
#168 = LINE ( 'NONE', #174, #166 ) ;
#169 = DIRECTION ( 'NONE',  ( 7.294500818824955000E-016, -1.000000000000000000, 0.0000000000000000000 ) ) ;
#170 = DIRECTION ( 'NONE',  ( 0.0000000000000000000, -1.000000000000000000, 0.0000000000000000000 ) ) ;
#171 = MANIFOLD_SOLID_BREP ( 'Ðý×ª1', #70 ) ;
#172 = ORIENTED_EDGE ( 'NONE', *, *, #53, .T. ) ;
#173 = CIRCLE ( 'NONE', #97, 81.50000000000002800 ) ;
#174 = CARTESIAN_POINT ( 'NONE',  ( 115.9444912979631500, 84.24184047094030300, 2.329890535377836000E-015 ) ) ;
#175 = ORIENTED_EDGE ( 'NONE', *, *, #192, .F. ) ;
#176 = EDGE_CURVE ( 'NONE', #181, #123, #23, .T. ) ;
#177 = VERTEX_POINT ( 'NONE', #142 ) ;
#178 = UNCERTAINTY_MEASURE_WITH_UNIT (LENGTH_MEASURE( 1.000000000000000100E-005 ), #157, 'distance_accuracy_value', 'NONE');
#179 = ORIENTED_EDGE ( 'NONE', *, *, #30, .F. ) ;
#180 = PRESENTATION_LAYER_ASSIGNMENT (  '', '', ( #63 ) ) ;
#181 = VERTEX_POINT ( 'NONE', #87 ) ;
#182 = CARTESIAN_POINT ( 'NONE',  ( 115.9444912979631700, 65.21684047094032600, 0.0000000000000000000 ) ) ;
#183 = CARTESIAN_POINT ( 'NONE',  ( 128.7604872120053900, 46.19184047094032800, -2.329890535377839100E-015 ) ) ;
#184 = ADVANCED_BREP_SHAPE_REPRESENTATION ( '150014', ( #171, #48 ), #46 ) ;
#185 = DIRECTION ( 'NONE',  ( -0.0000000000000000000, 0.0000000000000000000, 1.000000000000000000 ) ) ;
#186 =( NAMED_UNIT ( * ) SI_UNIT ( $, .STERADIAN. ) SOLID_ANGLE_UNIT ( ) );
#187 = ADVANCED_FACE ( 'NONE', ( #86 ), #138, .T. ) ;
#188 = VERTEX_POINT ( 'NONE', #25 ) ;
#189 = DIRECTION ( 'NONE',  ( -1.000000000000000000, -6.937607244762875000E-016, -0.0000000000000000000 ) ) ;
#190 = MECHANICAL_DESIGN_GEOMETRIC_PRESENTATION_REPRESENTATION (  '', ( #63 ), #20 ) ;
#191 = DIRECTION ( 'NONE',  ( -8.496118506040342700E-032, 1.224646799147353200E-016, -1.000000000000000000 ) ) ;
#192 = EDGE_CURVE ( 'NONE', #145, #177, #150, .T. ) ;
ENDSEC;
END-ISO-10303-21;
