ISO-10303-21;
HEADER;
FILE_DESCRIPTION (( 'STEP AP214' ),
    '1' );
FILE_NAME ('GLM1-025B-150.STEP',
    '2024-08-09T02:15:33',
    ( 'Windows User' ),
    ( 'P R C' ),
    'SwSTEP 2.0',
    'SolidWorks 2022',
    '' );
FILE_SCHEMA (( 'AUTOMOTIVE_DESIGN' ));
ENDSEC;

DATA;
#1 = AXIS2_PLACEMENT_3D ( 'NONE', #298, #66, #167 ) ;
#2 = ORIENTED_EDGE ( 'NONE', *, *, #128, .T. ) ;
#3 = ORIENTED_EDGE ( 'NONE', *, *, #273, .T. ) ;
#4 = EDGE_CURVE ( 'NONE', #235, #232, #6, .T. ) ;
#5 = ORIENTED_EDGE ( 'NONE', *, *, #302, .T. ) ;
#6 = CIRCLE ( 'NONE', #60, 12.51756548749907694 ) ;
#7 = APPLICATION_CONTEXT ( 'automotive_design' ) ;
#8 = ORIENTED_EDGE ( 'NONE', *, *, #213, .F. ) ;
#9 = EDGE_CURVE ( 'NONE', #314, #235, #206, .T. ) ;
#10 = AXIS2_PLACEMENT_3D ( 'NONE', #330, #150, #199 ) ;
#11 = CONICAL_SURFACE ( 'NONE', #195, 12.69999999999999929, 0.5235494456648849271 ) ;
#12 =( LENGTH_UNIT ( ) NAMED_UNIT ( * ) SI_UNIT ( .MILLI., .METRE. ) );
#13 = DIRECTION ( 'NONE',  ( 1.000000000000000000, 0.000000000000000000, 0.000000000000000000 ) ) ;
#14 = SURFACE_STYLE_FILL_AREA ( #257 ) ;
#15 = DIRECTION ( 'NONE',  ( -0.000000000000000000, -0.000000000000000000, 1.000000000000000000 ) ) ;
#16 = CARTESIAN_POINT ( 'NONE',  ( 0.000000000000000000, 0.000000000000000000, 4.282866881517001900 ) ) ;
#17 = UNCERTAINTY_MEASURE_WITH_UNIT (LENGTH_MEASURE( 1.000000000000000082E-05 ), #12, 'distance_accuracy_value', 'NONE');
#18 = ORIENTED_EDGE ( 'NONE', *, *, #302, .F. ) ;
#19 = DIRECTION ( 'NONE',  ( 1.000000000000000000, 0.000000000000000000, 0.000000000000000000 ) ) ;
#20 = LINE ( 'NONE', #49, #265 ) ;
#21 = CARTESIAN_POINT ( 'NONE',  ( 0.000000000000000000, 0.000000000000000000, 136.9455749538715850 ) ) ;
#22 = DIRECTION ( 'NONE',  ( -1.000000000000000000, 1.224646799147353207E-16, 0.000000000000000000 ) ) ;
#23 = DIRECTION ( 'NONE',  ( 0.4999572784161532835, 0.000000000000000000, 0.8660500676974242085 ) ) ;
#24 = CLOSED_SHELL ( 'NONE', ( #310, #100, #125, #279, #276, #239, #204, #64, #110, #169 ) ) ;
#25 = CARTESIAN_POINT ( 'NONE',  ( 0.000000000000000000, 3.004058598308457002E-15, 2.327694605245358872 ) ) ;
#26 = PRODUCT_DEFINITION ( 'Î´Öª', '', #296, #153 ) ;
#27 = EDGE_LOOP ( 'NONE', ( #306, #59, #332, #246, #331 ) ) ;
#28 = VERTEX_POINT ( 'NONE', #58 ) ;
#29 = EDGE_LOOP ( 'NONE', ( #136, #106, #305, #76 ) ) ;
#30 = CIRCLE ( 'NONE', #170, 12.50710445798774728 ) ;
#31 = EDGE_CURVE ( 'NONE', #32, #179, #88, .T. ) ;
#32 = VERTEX_POINT ( 'NONE', #133 ) ;
#33 =( NAMED_UNIT ( * ) PLANE_ANGLE_UNIT ( ) SI_UNIT ( $, .RADIAN. ) );
#34 = DIRECTION ( 'NONE',  ( -0.000000000000000000, -0.000000000000000000, 1.000000000000000000 ) ) ;
#35 = DIRECTION ( 'NONE',  ( -0.000000000000000000, -0.000000000000000000, 1.000000000000000000 ) ) ;
#36 = AXIS2_PLACEMENT_3D ( 'NONE', #87, #194, #300 ) ;
#37 = CIRCLE ( 'NONE', #256, 49.05999999999999517 ) ;
#38 = VERTEX_POINT ( 'NONE', #209 ) ;
#39 = DIRECTION ( 'NONE',  ( -1.000000000000000000, 0.000000000000000000, 0.000000000000000000 ) ) ;
#40 = ORIENTED_EDGE ( 'NONE', *, *, #31, .T. ) ;
#41 = DIRECTION ( 'NONE',  ( -1.000000000000000000, 0.000000000000000000, 0.000000000000000000 ) ) ;
#42 = DIRECTION ( 'NONE',  ( 1.000000000000000000, 0.000000000000000000, 0.000000000000000000 ) ) ;
#43 = DIRECTION ( 'NONE',  ( -1.000000000000000000, 0.000000000000000000, 0.000000000000000000 ) ) ;
#44 = MECHANICAL_DESIGN_GEOMETRIC_PRESENTATION_REPRESENTATION (  '', ( #328 ), #157 ) ;
#45 = CARTESIAN_POINT ( 'NONE',  ( -12.69999999999999929, 1.555301434917138433E-15, 4.282866881517001900 ) ) ;
#46 = CARTESIAN_POINT ( 'NONE',  ( 12.69999999999999929, 0.000000000000000000, 4.282866881517001900 ) ) ;
#47 = DIRECTION ( 'NONE',  ( 0.000000000000000000, 0.000000000000000000, -1.000000000000000000 ) ) ;
#48 = CARTESIAN_POINT ( 'NONE',  ( 12.69999999999999929, 1.555301434917138433E-15, 4.282866881517001900 ) ) ;
#49 = CARTESIAN_POINT ( 'NONE',  ( -12.69999999999999929, 0.000000000000000000, 10.00000000000000000 ) ) ;
#50 = AXIS2_PLACEMENT_3D ( 'NONE', #138, #166, #111 ) ;
#51 = CARTESIAN_POINT ( 'NONE',  ( -12.51756548749907161, 0.000000000000000000, 5.982434512500911516 ) ) ;
#52 = STYLED_ITEM ( 'NONE', ( #163 ), #56 ) ;
#53 = EDGE_LOOP ( 'NONE', ( #229, #249, #311, #286 ) ) ;
#54 = CIRCLE ( 'NONE', #297, 12.50710445798774728 ) ;
#55 = EDGE_CURVE ( 'NONE', #228, #28, #132, .T. ) ;
#56 = MANIFOLD_SOLID_BREP ( 'µ¹½Ç1', #24 ) ;
#57 = EDGE_LOOP ( 'NONE', ( #308, #5, #159, #73 ) ) ;
#58 = CARTESIAN_POINT ( 'NONE',  ( 12.69999999999999929, 1.555301434917138433E-15, 5.799999999999999822 ) ) ;
#59 = ORIENTED_EDGE ( 'NONE', *, *, #200, .F. ) ;
#60 = AXIS2_PLACEMENT_3D ( 'NONE', #105, #35, #207 ) ;
#61 = SURFACE_STYLE_USAGE ( .BOTH. , #288 ) ;
#62 = FACE_OUTER_BOUND ( 'NONE', #251, .T. ) ;
#63 = DIRECTION ( 'NONE',  ( 1.000000000000000000, 0.000000000000000000, 0.000000000000000000 ) ) ;
#64 = ADVANCED_FACE ( 'NONE', ( #165 ), #315, .F. ) ;
#65 = AXIS2_PLACEMENT_3D ( 'NONE', #231, #34, #182 ) ;
#66 = DIRECTION ( 'NONE',  ( 0.000000000000000000, 0.000000000000000000, -1.000000000000000000 ) ) ;
#67 = APPLICATION_CONTEXT ( 'automotive_design' ) ;
#68 = DIRECTION ( 'NONE',  ( 1.000000000000000000, 0.000000000000000000, 0.000000000000000000 ) ) ;
#69 = CARTESIAN_POINT ( 'NONE',  ( 0.000000000000000000, 8.055726644791288963E-15, 5.385574953871569370 ) ) ;
#70 = FACE_OUTER_BOUND ( 'NONE', #29, .T. ) ;
#71 = ORIENTED_EDGE ( 'NONE', *, *, #4, .F. ) ;
#72 = CONICAL_SURFACE ( 'NONE', #253, 12.51756548749907161, 0.7853981633974911336 ) ;
#73 = ORIENTED_EDGE ( 'NONE', *, *, #4, .T. ) ;
#74 = VERTEX_POINT ( 'NONE', #25 ) ;
#75 = PRESENTATION_STYLE_ASSIGNMENT (( #104 ) ) ;
#76 = ORIENTED_EDGE ( 'NONE', *, *, #83, .F. ) ;
#77 = FILL_AREA_STYLE_COLOUR ( '', #190 ) ;
#78 = FACE_OUTER_BOUND ( 'NONE', #53, .T. ) ;
#79 = DIRECTION ( 'NONE',  ( -0.000000000000000000, -0.000000000000000000, 1.000000000000000000 ) ) ;
#80 = APPLICATION_PROTOCOL_DEFINITION ( 'draft international standard', 'automotive_design', 1998, #67 ) ;
#81 = AXIS2_PLACEMENT_3D ( 'NONE', #139, #47, #112 ) ;
#82 = SPHERICAL_SURFACE ( 'NONE', #186, 49.05999999999999517 ) ;
#83 = EDGE_CURVE ( 'NONE', #228, #32, #20, .T. ) ;
#84 = UNCERTAINTY_MEASURE_WITH_UNIT (LENGTH_MEASURE( 1.000000000000000082E-05 ), #233, 'distance_accuracy_value', 'NONE');
#85 =( NAMED_UNIT ( * ) SI_UNIT ( $, .STERADIAN. ) SOLID_ANGLE_UNIT ( ) );
#86 = CARTESIAN_POINT ( 'NONE',  ( -12.69999999999999929, 0.000000000000000000, 5.799999999999999822 ) ) ;
#87 = CARTESIAN_POINT ( 'NONE',  ( 0.000000000000000000, 0.000000000000000000, 10.00000000000000000 ) ) ;
#88 = CIRCLE ( 'NONE', #65, 12.69999999999999929 ) ;
#89 = DIRECTION ( 'NONE',  ( -0.000000000000000000, -0.000000000000000000, 1.000000000000000000 ) ) ;
#90 = LINE ( 'NONE', #46, #91 ) ;
#91 = VECTOR ( 'NONE', #23, 1000.000000000000000 ) ;
#92 = AXIS2_PLACEMENT_3D ( 'NONE', #266, #41, #268 ) ;
#93 = LINE ( 'NONE', #51, #122 ) ;
#94 = FACE_OUTER_BOUND ( 'NONE', #250, .T. ) ;
#95 = DIRECTION ( 'NONE',  ( 1.000000000000000000, 0.000000000000000000, 0.000000000000000000 ) ) ;
#96 = DIRECTION ( 'NONE',  ( 1.000000000000000000, 0.000000000000000000, 0.000000000000000000 ) ) ;
#97 = AXIS2_PLACEMENT_3D ( 'NONE', #16, #79, #43 ) ;
#98 = EDGE_CURVE ( 'NONE', #99, #32, #264, .T. ) ;
#99 = VERTEX_POINT ( 'NONE', #191 ) ;
#100 = ADVANCED_FACE ( 'NONE', ( #94 ), #154, .T. ) ;
#101 = ORIENTED_EDGE ( 'NONE', *, *, #128, .F. ) ;
#102 = ORIENTED_EDGE ( 'NONE', *, *, #83, .T. ) ;
#103 = ORIENTED_EDGE ( 'NONE', *, *, #225, .F. ) ;
#104 = SURFACE_STYLE_USAGE ( .BOTH. , #109 ) ;
#105 = CARTESIAN_POINT ( 'NONE',  ( 0.000000000000000000, 0.000000000000000000, 5.982434512500911516 ) ) ;
#106 = ORIENTED_EDGE ( 'NONE', *, *, #177, .T. ) ;
#107 = CARTESIAN_POINT ( 'NONE',  ( 0.000000000000000000, 0.000000000000000000, 5.799999999999999822 ) ) ;
#108 = CARTESIAN_POINT ( 'NONE',  ( 0.000000000000000000, 12.50710445798775083, 3.948723936848860028 ) ) ;
#109 = SURFACE_SIDE_STYLE ('',( #14 ) ) ;
#110 = ADVANCED_FACE ( 'NONE', ( #301 ), #11, .T. ) ;
#111 = DIRECTION ( 'NONE',  ( -1.224646799147353207E-16, -1.000000000000000000, 0.000000000000000000 ) ) ;
#112 = DIRECTION ( 'NONE',  ( -1.000000000000000000, 0.000000000000000000, 0.000000000000000000 ) ) ;
#113 = DIRECTION ( 'NONE',  ( 0.000000000000000000, 0.000000000000000000, -1.000000000000000000 ) ) ;
#114 = PRESENTATION_LAYER_ASSIGNMENT (  '', '', ( #328 ) ) ;
#115 = DIRECTION ( 'NONE',  ( -0.000000000000000000, -0.000000000000000000, -1.000000000000000000 ) ) ;
#116 = DIRECTION ( 'NONE',  ( 1.000000000000000000, -0.000000000000000000, 0.000000000000000000 ) ) ;
#117 = DIRECTION ( 'NONE',  ( -1.224646799147353207E-16, -1.000000000000000000, 0.000000000000000000 ) ) ;
#118 = CYLINDRICAL_SURFACE ( 'NONE', #36, 12.69999999999999929 ) ;
#119 = VECTOR ( 'NONE', #115, 1000.000000000000000 ) ;
#120 = CARTESIAN_POINT ( 'NONE',  ( 12.51756548749907161, 1.532959650738311713E-15, 5.982434512500911516 ) ) ;
#121 = SPHERICAL_SURFACE ( 'NONE', #322, 49.05999999999999517 ) ;
#122 = VECTOR ( 'NONE', #212, 1000.000000000000000 ) ;
#123 = CARTESIAN_POINT ( 'NONE',  ( 12.69999999999999929, 1.555301434917138433E-15, 10.00000000000000000 ) ) ;
#124 = ADVANCED_BREP_SHAPE_REPRESENTATION ( 'GLM1-025B-150', ( #56, #174 ), #236 ) ;
#125 = ADVANCED_FACE ( 'NONE', ( #295 ), #317, .F. ) ;
#126 = ORIENTED_EDGE ( 'NONE', *, *, #326, .T. ) ;
#127 = CIRCLE ( 'NONE', #222, 131.5600000000000023 ) ;
#128 = EDGE_CURVE ( 'NONE', #180, #28, #196, .T. ) ;
#129 = ORIENTED_EDGE ( 'NONE', *, *, #160, .F. ) ;
#130 = CIRCLE ( 'NONE', #247, 12.50710445798774728 ) ;
#131 = ORIENTED_EDGE ( 'NONE', *, *, #234, .F. ) ;
#132 = CIRCLE ( 'NONE', #151, 12.69999999999999929 ) ;
#133 = CARTESIAN_POINT ( 'NONE',  ( -12.69999999999999929, 0.000000000000000000, 4.282866881517001900 ) ) ;
#134 = CIRCLE ( 'NONE', #50, 131.5600000000000023 ) ;
#135 = AXIS2_PLACEMENT_3D ( 'NONE', #197, #269, #95 ) ;
#136 = ORIENTED_EDGE ( 'NONE', *, *, #55, .T. ) ;
#137 = AXIS2_PLACEMENT_3D ( 'NONE', #271, #221, #144 ) ;
#138 = CARTESIAN_POINT ( 'NONE',  ( 0.000000000000000000, 0.000000000000000000, 136.9455749538715850 ) ) ;
#139 = CARTESIAN_POINT ( 'NONE',  ( 0.000000000000000000, 0.000000000000000000, 5.982434512500911516 ) ) ;
#140 = ORIENTED_EDGE ( 'NONE', *, *, #213, .T. ) ;
#141 = DIRECTION ( 'NONE',  ( 0.000000000000000000, 0.000000000000000000, -1.000000000000000000 ) ) ;
#142 = LINE ( 'NONE', #123, #119 ) ;
#143 = CARTESIAN_POINT ( 'NONE',  ( 0.000000000000000000, 0.000000000000000000, 51.38769460524535049 ) ) ;
#144 = DIRECTION ( 'NONE',  ( 0.000000000000000000, 1.000000000000000000, 0.000000000000000000 ) ) ;
#145 = DIRECTION ( 'NONE',  ( -0.000000000000000000, -0.000000000000000000, 1.000000000000000000 ) ) ;
#146 = CIRCLE ( 'NONE', #1, 12.50710445798774728 ) ;
#147 = DIRECTION ( 'NONE',  ( -0.000000000000000000, -0.000000000000000000, -1.000000000000000000 ) ) ;
#148 = EDGE_CURVE ( 'NONE', #74, #38, #37, .T. ) ;
#149 = CARTESIAN_POINT ( 'NONE',  ( 0.000000000000000000, 0.000000000000000000, 5.982434512500911516 ) ) ;
#150 = DIRECTION ( 'NONE',  ( -0.000000000000000000, -0.000000000000000000, -1.000000000000000000 ) ) ;
#151 = AXIS2_PLACEMENT_3D ( 'NONE', #107, #312, #13 ) ;
#152 =( NAMED_UNIT ( * ) SI_UNIT ( $, .STERADIAN. ) SOLID_ANGLE_UNIT ( ) );
#153 = PRODUCT_DEFINITION_CONTEXT ( 'detailed design', #7, 'design' ) ;
#154 = CONICAL_SURFACE ( 'NONE', #299, 12.69999999999999929, 0.5235494456648849271 ) ;
#155 = PRODUCT_DEFINITION_SHAPE ( 'NONE', 'NONE',  #26 ) ;
#156 = ORIENTED_EDGE ( 'NONE', *, *, #160, .T. ) ;
#157 =( GEOMETRIC_REPRESENTATION_CONTEXT ( 3 ) GLOBAL_UNCERTAINTY_ASSIGNED_CONTEXT ( ( #17 ) ) GLOBAL_UNIT_ASSIGNED_CONTEXT ( ( #12, #33, #152 ) ) REPRESENTATION_CONTEXT ( 'NONE', 'WORKASPACE' ) );
#158 = ORIENTED_EDGE ( 'NONE', *, *, #220, .F. ) ;
#159 = ORIENTED_EDGE ( 'NONE', *, *, #9, .T. ) ;
#160 = EDGE_CURVE ( 'NONE', #235, #228, #93, .T. ) ;
#161 = EDGE_LOOP ( 'NONE', ( #158, #281, #303, #126 ) ) ;
#162 = AXIS2_PLACEMENT_3D ( 'NONE', #289, #267, #42 ) ;
#163 = PRESENTATION_STYLE_ASSIGNMENT (( #61 ) ) ;
#164 = FACE_OUTER_BOUND ( 'NONE', #280, .T. ) ;
#165 = FACE_OUTER_BOUND ( 'NONE', #57, .T. ) ;
#166 = DIRECTION ( 'NONE',  ( -1.000000000000000000, 1.224646799147353207E-16, 0.000000000000000000 ) ) ;
#167 = DIRECTION ( 'NONE',  ( 1.000000000000000000, 0.000000000000000000, 0.000000000000000000 ) ) ;
#168 = CARTESIAN_POINT ( 'NONE',  ( 0.000000000000000000, 0.000000000000000000, 4.282866881517001900 ) ) ;
#169 = ADVANCED_FACE ( 'NONE', ( #164 ), #72, .T. ) ;
#170 = AXIS2_PLACEMENT_3D ( 'NONE', #291, #238, #63 ) ;
#171 = VERTEX_POINT ( 'NONE', #188 ) ;
#172 = PRODUCT_CONTEXT ( 'NONE', #67, 'mechanical' ) ;
#173 = APPLICATION_PROTOCOL_DEFINITION ( 'draft international standard', 'automotive_design', 1998, #7 ) ;
#174 = AXIS2_PLACEMENT_3D ( 'NONE', #244, #325, #189 ) ;
#175 = VECTOR ( 'NONE', #240, 1000.000000000000000 ) ;
#176 = ORIENTED_EDGE ( 'NONE', *, *, #313, .F. ) ;
#177 = EDGE_CURVE ( 'NONE', #28, #179, #142, .T. ) ;
#178 =( NAMED_UNIT ( * ) SI_UNIT ( $, .STERADIAN. ) SOLID_ANGLE_UNIT ( ) );
#179 = VERTEX_POINT ( 'NONE', #48 ) ;
#180 = VERTEX_POINT ( 'NONE', #237 ) ;
#181 = EDGE_CURVE ( 'NONE', #180, #314, #321, .T. ) ;
#182 = DIRECTION ( 'NONE',  ( -1.000000000000000000, 0.000000000000000000, 0.000000000000000000 ) ) ;
#183 = FILL_AREA_STYLE ('',( #77 ) ) ;
#184 = CARTESIAN_POINT ( 'NONE',  ( 0.000000000000000000, 0.000000000000000000, 51.38769460524535049 ) ) ;
#185 = CARTESIAN_POINT ( 'NONE',  ( 0.000000000000000000, 12.51756548749897568, 5.982434512500911516 ) ) ;
#186 = AXIS2_PLACEMENT_3D ( 'NONE', #184, #259, #262 ) ;
#187 = ORIENTED_EDGE ( 'NONE', *, *, #9, .F. ) ;
#188 = CARTESIAN_POINT ( 'NONE',  ( 12.50710445798774728, 0.000000000000000000, 3.948723936848863580 ) ) ;
#189 = DIRECTION ( 'NONE',  ( 1.000000000000000000, 0.000000000000000000, 0.000000000000000000 ) ) ;
#190 = COLOUR_RGB ( '',1.000000000000000000, 1.000000000000000000, 1.000000000000000000 ) ;
#191 = CARTESIAN_POINT ( 'NONE',  ( -12.50710445798774728, 1.543489989512383738E-15, 3.948723936848863580 ) ) ;
#192 = CARTESIAN_POINT ( 'NONE',  ( 0.000000000000000000, 0.000000000000000000, 3.948723936848863580 ) ) ;
#193 = DIRECTION ( 'NONE',  ( 1.000000000000000000, 0.000000000000000000, 0.000000000000000000 ) ) ;
#194 = DIRECTION ( 'NONE',  ( -0.000000000000000000, -0.000000000000000000, -1.000000000000000000 ) ) ;
#195 = AXIS2_PLACEMENT_3D ( 'NONE', #261, #89, #245 ) ;
#196 = LINE ( 'NONE', #120, #175 ) ;
#197 = CARTESIAN_POINT ( 'NONE',  ( 0.000000000000000000, 0.000000000000000000, 5.799999999999999822 ) ) ;
#198 = ORIENTED_EDGE ( 'NONE', *, *, #326, .F. ) ;
#199 = DIRECTION ( 'NONE',  ( -1.000000000000000000, 0.000000000000000000, 0.000000000000000000 ) ) ;
#200 = EDGE_CURVE ( 'NONE', #38, #99, #146, .T. ) ;
#201 = ORIENTED_EDGE ( 'NONE', *, *, #55, .F. ) ;
#202 = PRODUCT ( 'GLM1-025B-150', 'GLM1-025B-150', '', ( #172 ) ) ;
#203 = ORIENTED_EDGE ( 'NONE', *, *, #181, .T. ) ;
#204 = ADVANCED_FACE ( 'NONE', ( #78 ), #82, .T. ) ;
#205 = ORIENTED_EDGE ( 'NONE', *, *, #181, .F. ) ;
#206 = CIRCLE ( 'NONE', #294, 12.51756548749907694 ) ;
#207 = DIRECTION ( 'NONE',  ( 1.000000000000000000, 0.000000000000000000, 0.000000000000000000 ) ) ;
#208 =( GEOMETRIC_REPRESENTATION_CONTEXT ( 3 ) GLOBAL_UNCERTAINTY_ASSIGNED_CONTEXT ( ( #84 ) ) GLOBAL_UNIT_ASSIGNED_CONTEXT ( ( #233, #211, #85 ) ) REPRESENTATION_CONTEXT ( 'NONE', 'WORKASPACE' ) );
#209 = CARTESIAN_POINT ( 'NONE',  ( -1.531678544107628650E-15, -12.50710445798775083, 3.948723936848860028 ) ) ;
#210 = CARTESIAN_POINT ( 'NONE',  ( 0.000000000000000000, 0.000000000000000000, 5.982434512500911516 ) ) ;
#211 =( NAMED_UNIT ( * ) PLANE_ANGLE_UNIT ( ) SI_UNIT ( $, .RADIAN. ) );
#212 = DIRECTION ( 'NONE',  ( -0.7071067811865777708, 0.000000000000000000, -0.7071067811865172636 ) ) ;
#213 = EDGE_CURVE ( 'NONE', #232, #180, #277, .T. ) ;
#214 = CARTESIAN_POINT ( 'NONE',  ( 0.000000000000000000, 0.000000000000000000, 5.982434512500911516 ) ) ;
#215 = CARTESIAN_POINT ( 'NONE',  ( -12.51756548749907694, 0.000000000000000000, 5.982434512500911516 ) ) ;
#216 =( NAMED_UNIT ( * ) PLANE_ANGLE_UNIT ( ) SI_UNIT ( $, .RADIAN. ) );
#217 = EDGE_CURVE ( 'NONE', #248, #232, #134, .T. ) ;
#218 = DIRECTION ( 'NONE',  ( -1.000000000000000000, 0.000000000000000000, 0.000000000000000000 ) ) ;
#219 = DIRECTION ( 'NONE',  ( 0.000000000000000000, 0.000000000000000000, -1.000000000000000000 ) ) ;
#220 = EDGE_CURVE ( 'NONE', #74, #309, #226, .T. ) ;
#221 = DIRECTION ( 'NONE',  ( -1.000000000000000000, 0.000000000000000000, 0.000000000000000000 ) ) ;
#222 = AXIS2_PLACEMENT_3D ( 'NONE', #21, #319, #316 ) ;
#223 = EDGE_LOOP ( 'NONE', ( #18, #224, #140, #203 ) ) ;
#224 = ORIENTED_EDGE ( 'NONE', *, *, #217, .T. ) ;
#225 = EDGE_CURVE ( 'NONE', #309, #171, #130, .T. ) ;
#226 = CIRCLE ( 'NONE', #270, 49.05999999999999517 ) ;
#227 = CONICAL_SURFACE ( 'NONE', #81, 12.51756548749907161, 0.7853981633974911336 ) ;
#228 = VERTEX_POINT ( 'NONE', #86 ) ;
#229 = ORIENTED_EDGE ( 'NONE', *, *, #148, .F. ) ;
#230 = PRESENTATION_LAYER_ASSIGNMENT (  '', '', ( #52 ) ) ;
#231 = CARTESIAN_POINT ( 'NONE',  ( 0.000000000000000000, 0.000000000000000000, 4.282866881517001900 ) ) ;
#232 = VERTEX_POINT ( 'NONE', #241 ) ;
#233 =( LENGTH_UNIT ( ) NAMED_UNIT ( * ) SI_UNIT ( .MILLI., .METRE. ) );
#234 = EDGE_CURVE ( 'NONE', #171, #179, #90, .T. ) ;
#235 = VERTEX_POINT ( 'NONE', #215 ) ;
#236 =( GEOMETRIC_REPRESENTATION_CONTEXT ( 3 ) GLOBAL_UNCERTAINTY_ASSIGNED_CONTEXT ( ( #242 ) ) GLOBAL_UNIT_ASSIGNED_CONTEXT ( ( #260, #216, #178 ) ) REPRESENTATION_CONTEXT ( 'NONE', 'WORKASPACE' ) );
#237 = CARTESIAN_POINT ( 'NONE',  ( 12.51756548749907694, 1.544130542827725172E-15, 5.982434512500911516 ) ) ;
#238 = DIRECTION ( 'NONE',  ( 0.000000000000000000, 0.000000000000000000, -1.000000000000000000 ) ) ;
#239 = ADVANCED_FACE ( 'NONE', ( #318 ), #118, .T. ) ;
#240 = DIRECTION ( 'NONE',  ( 0.7071067811865777708, 8.659560562355303869E-17, -0.7071067811865172636 ) ) ;
#241 = CARTESIAN_POINT ( 'NONE',  ( -1.532959650738299683E-15, -12.51756548749897568, 5.982434512500911516 ) ) ;
#242 = UNCERTAINTY_MEASURE_WITH_UNIT (LENGTH_MEASURE( 1.000000000000000082E-05 ), #260, 'distance_accuracy_value', 'NONE');
#243 = DIRECTION ( 'NONE',  ( -0.000000000000000000, -0.000000000000000000, 1.000000000000000000 ) ) ;
#244 = CARTESIAN_POINT ( 'NONE',  ( 0.000000000000000000, 0.000000000000000000, 0.000000000000000000 ) ) ;
#245 = DIRECTION ( 'NONE',  ( 1.000000000000000000, 0.000000000000000000, 0.000000000000000000 ) ) ;
#246 = ORIENTED_EDGE ( 'NONE', *, *, #234, .T. ) ;
#247 = AXIS2_PLACEMENT_3D ( 'NONE', #192, #141, #19 ) ;
#248 = VERTEX_POINT ( 'NONE', #69 ) ;
#249 = ORIENTED_EDGE ( 'NONE', *, *, #220, .T. ) ;
#250 = EDGE_LOOP ( 'NONE', ( #198, #258, #176, #131, #103 ) ) ;
#251 = EDGE_LOOP ( 'NONE', ( #205, #2, #201, #129, #187 ) ) ;
#252 = EDGE_CURVE ( 'NONE', #171, #38, #54, .T. ) ;
#253 = AXIS2_PLACEMENT_3D ( 'NONE', #149, #113, #218 ) ;
#254 = EDGE_LOOP ( 'NONE', ( #329, #3, #102, #40 ) ) ;
#255 = DIRECTION ( 'NONE',  ( 0.000000000000000000, 1.000000000000000000, 0.000000000000000000 ) ) ;
#256 = AXIS2_PLACEMENT_3D ( 'NONE', #323, #22, #117 ) ;
#257 = FILL_AREA_STYLE ('',( #285 ) ) ;
#258 = ORIENTED_EDGE ( 'NONE', *, *, #98, .T. ) ;
#259 = DIRECTION ( 'NONE',  ( -1.000000000000000000, 0.000000000000000000, 0.000000000000000000 ) ) ;
#260 =( LENGTH_UNIT ( ) NAMED_UNIT ( * ) SI_UNIT ( .MILLI., .METRE. ) );
#261 = CARTESIAN_POINT ( 'NONE',  ( 0.000000000000000000, 0.000000000000000000, 4.282866881517001900 ) ) ;
#262 = DIRECTION ( 'NONE',  ( 0.000000000000000000, 1.000000000000000000, 0.000000000000000000 ) ) ;
#263 = COLOUR_RGB ( '',1.000000000000000000, 1.000000000000000000, 1.000000000000000000 ) ;
#264 = LINE ( 'NONE', #45, #324 ) ;
#265 = VECTOR ( 'NONE', #147, 1000.000000000000000 ) ;
#266 = CARTESIAN_POINT ( 'NONE',  ( 0.000000000000000000, 0.000000000000000000, 136.9455749538715850 ) ) ;
#267 = DIRECTION ( 'NONE',  ( -0.000000000000000000, -0.000000000000000000, 1.000000000000000000 ) ) ;
#268 = DIRECTION ( 'NONE',  ( 0.000000000000000000, 1.000000000000000000, 0.000000000000000000 ) ) ;
#269 = DIRECTION ( 'NONE',  ( 0.000000000000000000, 0.000000000000000000, -1.000000000000000000 ) ) ;
#270 = AXIS2_PLACEMENT_3D ( 'NONE', #143, #116, #219 ) ;
#271 = CARTESIAN_POINT ( 'NONE',  ( 0.000000000000000000, 0.000000000000000000, 136.9455749538715850 ) ) ;
#272 = CARTESIAN_POINT ( 'NONE',  ( 0.000000000000000000, 0.000000000000000000, 3.948723936848863580 ) ) ;
#273 = EDGE_CURVE ( 'NONE', #28, #228, #307, .T. ) ;
#274 = CYLINDRICAL_SURFACE ( 'NONE', #10, 12.69999999999999929 ) ;
#275 = MECHANICAL_DESIGN_GEOMETRIC_PRESENTATION_REPRESENTATION (  '', ( #52 ), #208 ) ;
#276 = ADVANCED_FACE ( 'NONE', ( #70 ), #274, .T. ) ;
#277 = CIRCLE ( 'NONE', #162, 12.51756548749907694 ) ;
#278 = SHAPE_DEFINITION_REPRESENTATION ( #155, #124 ) ;
#279 = ADVANCED_FACE ( 'NONE', ( #304 ), #121, .T. ) ;
#280 = EDGE_LOOP ( 'NONE', ( #101, #8, #71, #156, #283 ) ) ;
#281 = ORIENTED_EDGE ( 'NONE', *, *, #148, .T. ) ;
#282 = CIRCLE ( 'NONE', #97, 12.69999999999999929 ) ;
#283 = ORIENTED_EDGE ( 'NONE', *, *, #273, .F. ) ;
#284 = DIRECTION ( 'NONE',  ( 1.000000000000000000, 0.000000000000000000, 0.000000000000000000 ) ) ;
#285 = FILL_AREA_STYLE_COLOUR ( '', #263 ) ;
#286 = ORIENTED_EDGE ( 'NONE', *, *, #252, .T. ) ;
#287 = AXIS2_PLACEMENT_3D ( 'NONE', #214, #145, #193 ) ;
#288 = SURFACE_SIDE_STYLE ('',( #290 ) ) ;
#289 = CARTESIAN_POINT ( 'NONE',  ( 0.000000000000000000, 0.000000000000000000, 5.982434512500911516 ) ) ;
#290 = SURFACE_STYLE_FILL_AREA ( #183 ) ;
#291 = CARTESIAN_POINT ( 'NONE',  ( 0.000000000000000000, 0.000000000000000000, 3.948723936848863580 ) ) ;
#292 = PRODUCT_RELATED_PRODUCT_CATEGORY ( 'part', '', ( #202 ) ) ;
#293 = CARTESIAN_POINT ( 'NONE',  ( 0.000000000000000000, 0.000000000000000000, 51.38769460524535049 ) ) ;
#294 = AXIS2_PLACEMENT_3D ( 'NONE', #210, #15, #284 ) ;
#295 = FACE_OUTER_BOUND ( 'NONE', #223, .T. ) ;
#296 = PRODUCT_DEFINITION_FORMATION_WITH_SPECIFIED_SOURCE ( 'ÈÎºÎ', '', #202, .NOT_KNOWN. ) ;
#297 = AXIS2_PLACEMENT_3D ( 'NONE', #272, #327, #96 ) ;
#298 = CARTESIAN_POINT ( 'NONE',  ( 0.000000000000000000, 0.000000000000000000, 3.948723936848863580 ) ) ;
#299 = AXIS2_PLACEMENT_3D ( 'NONE', #168, #243, #68 ) ;
#300 = DIRECTION ( 'NONE',  ( -1.000000000000000000, 0.000000000000000000, 0.000000000000000000 ) ) ;
#301 = FACE_OUTER_BOUND ( 'NONE', #27, .T. ) ;
#302 = EDGE_CURVE ( 'NONE', #248, #314, #127, .T. ) ;
#303 = ORIENTED_EDGE ( 'NONE', *, *, #200, .T. ) ;
#304 = FACE_OUTER_BOUND ( 'NONE', #161, .T. ) ;
#305 = ORIENTED_EDGE ( 'NONE', *, *, #313, .T. ) ;
#306 = ORIENTED_EDGE ( 'NONE', *, *, #98, .F. ) ;
#307 = CIRCLE ( 'NONE', #135, 12.69999999999999929 ) ;
#308 = ORIENTED_EDGE ( 'NONE', *, *, #217, .F. ) ;
#309 = VERTEX_POINT ( 'NONE', #108 ) ;
#310 = ADVANCED_FACE ( 'NONE', ( #62 ), #227, .T. ) ;
#311 = ORIENTED_EDGE ( 'NONE', *, *, #225, .T. ) ;
#312 = DIRECTION ( 'NONE',  ( 0.000000000000000000, 0.000000000000000000, -1.000000000000000000 ) ) ;
#313 = EDGE_CURVE ( 'NONE', #179, #32, #282, .T. ) ;
#314 = VERTEX_POINT ( 'NONE', #185 ) ;
#315 = SPHERICAL_SURFACE ( 'NONE', #92, 131.5600000000000023 ) ;
#316 = DIRECTION ( 'NONE',  ( 0.000000000000000000, 0.000000000000000000, -1.000000000000000000 ) ) ;
#317 = SPHERICAL_SURFACE ( 'NONE', #137, 131.5600000000000023 ) ;
#318 = FACE_OUTER_BOUND ( 'NONE', #254, .T. ) ;
#319 = DIRECTION ( 'NONE',  ( 1.000000000000000000, 0.000000000000000000, 0.000000000000000000 ) ) ;
#320 = DIRECTION ( 'NONE',  ( -0.4999572784161532835, 6.122710807227642125E-17, 0.8660500676974242085 ) ) ;
#321 = CIRCLE ( 'NONE', #287, 12.51756548749907694 ) ;
#322 = AXIS2_PLACEMENT_3D ( 'NONE', #293, #39, #255 ) ;
#323 = CARTESIAN_POINT ( 'NONE',  ( 0.000000000000000000, 0.000000000000000000, 51.38769460524535049 ) ) ;
#324 = VECTOR ( 'NONE', #320, 1000.000000000000000 ) ;
#325 = DIRECTION ( 'NONE',  ( 0.000000000000000000, 0.000000000000000000, 1.000000000000000000 ) ) ;
#326 = EDGE_CURVE ( 'NONE', #99, #309, #30, .T. ) ;
#327 = DIRECTION ( 'NONE',  ( 0.000000000000000000, 0.000000000000000000, -1.000000000000000000 ) ) ;
#328 = STYLED_ITEM ( 'NONE', ( #75 ), #124 ) ;
#329 = ORIENTED_EDGE ( 'NONE', *, *, #177, .F. ) ;
#330 = CARTESIAN_POINT ( 'NONE',  ( 0.000000000000000000, 0.000000000000000000, 10.00000000000000000 ) ) ;
#331 = ORIENTED_EDGE ( 'NONE', *, *, #31, .F. ) ;
#332 = ORIENTED_EDGE ( 'NONE', *, *, #252, .F. ) ;
ENDSEC;
END-ISO-10303-21;
