ISO-10303-21;
HEADER;
FILE_DESCRIPTION (( 'STEP AP214' ),
    '1' );
FILE_NAME ('GLM1-050B-250.STEP',
    '2024-08-09T02:27:29',
    ( 'Windows User' ),
    ( 'P R C' ),
    'SwSTEP 2.0',
    'SolidWorks 2022',
    '' );
FILE_SCHEMA (( 'AUTOMOTIVE_DESIGN' ));
ENDSEC;

DATA;
#1 = PRESENTATION_LAYER_ASSIGNMENT (  '', '', ( #181 ) ) ;
#2 = DIRECTION ( 'NONE',  ( 1.000000000000000000, 0.000000000000000000, 0.000000000000000000 ) ) ;
#3 = ORIENTED_EDGE ( 'NONE', *, *, #110, .T. ) ;
#4 =( NAMED_UNIT ( * ) SI_UNIT ( $, .STERADIAN. ) SOLID_ANGLE_UNIT ( ) );
#5 = ORIENTED_EDGE ( 'NONE', *, *, #54, .T. ) ;
#6 = CIRCLE ( 'NONE', #56, 224.6699999999999875 ) ;
#7 = DIRECTION ( 'NONE',  ( 0.7071067811864724106, 8.659560562354013342E-17, -0.7071067811866226238 ) ) ;
#8 = VERTEX_POINT ( 'NONE', #246 ) ;
#9 = VERTEX_POINT ( 'NONE', #103 ) ;
#10 = LINE ( 'NONE', #87, #47 ) ;
#11 = CARTESIAN_POINT ( 'NONE',  ( 0.000000000000000000, 0.000000000000000000, 91.53465222435252713 ) ) ;
#12 = CARTESIAN_POINT ( 'NONE',  ( 25.39999999999999503, 3.110602869834276471E-15, 13.00000000000000000 ) ) ;
#13 = CIRCLE ( 'NONE', #158, 25.39999999999999503 ) ;
#14 = SURFACE_STYLE_USAGE ( .BOTH. , #193 ) ;
#15 = COLOUR_RGB ( '',1.000000000000000000, 1.000000000000000000, 1.000000000000000000 ) ;
#16 = DIRECTION ( 'NONE',  ( -1.224646799147352961E-16, -1.000000000000000000, 0.000000000000000000 ) ) ;
#17 = FACE_OUTER_BOUND ( 'NONE', #179, .T. ) ;
#18 = CARTESIAN_POINT ( 'NONE',  ( 25.22036627463847580, 3.088604083155986940E-15, 15.87963372536152562 ) ) ;
#19 = AXIS2_PLACEMENT_3D ( 'NONE', #146, #102, #185 ) ;
#20 = DIRECTION ( 'NONE',  ( 1.000000000000000000, 0.000000000000000000, 0.000000000000000000 ) ) ;
#21 = DIRECTION ( 'NONE',  ( -1.000000000000000000, 0.000000000000000000, 0.000000000000000000 ) ) ;
#22 = AXIS2_PLACEMENT_3D ( 'NONE', #276, #133, #173 ) ;
#23 = ADVANCED_FACE ( 'NONE', ( #263 ), #244, .T. ) ;
#24 = PRESENTATION_LAYER_ASSIGNMENT (  '', '', ( #174 ) ) ;
#25 = EDGE_LOOP ( 'NONE', ( #48, #228, #182, #136 ) ) ;
#26 = FILL_AREA_STYLE ('',( #223 ) ) ;
#27 = ORIENTED_EDGE ( 'NONE', *, *, #254, .T. ) ;
#28 = CARTESIAN_POINT ( 'NONE',  ( 0.000000000000000000, 0.000000000000000000, 0.000000000000000000 ) ) ;
#29 = ORIENTED_EDGE ( 'NONE', *, *, #189, .F. ) ;
#30 = AXIS2_PLACEMENT_3D ( 'NONE', #211, #89, #273 ) ;
#31 = ORIENTED_EDGE ( 'NONE', *, *, #189, .T. ) ;
#32 = DIRECTION ( 'NONE',  ( -0.000000000000000000, -0.000000000000000000, 1.000000000000000000 ) ) ;
#33 = DIRECTION ( 'NONE',  ( 0.000000000000000000, 1.000000000000000000, 0.000000000000000000 ) ) ;
#34 = ADVANCED_FACE ( 'NONE', ( #76 ), #264, .T. ) ;
#35 = ORIENTED_EDGE ( 'NONE', *, *, #104, .F. ) ;
#36 = LINE ( 'NONE', #214, #210 ) ;
#37 = DIRECTION ( 'NONE',  ( -0.000000000000000000, -0.000000000000000000, -1.000000000000000000 ) ) ;
#38 =( NAMED_UNIT ( * ) SI_UNIT ( $, .STERADIAN. ) SOLID_ANGLE_UNIT ( ) );
#39 = FILL_AREA_STYLE_COLOUR ( '', #15 ) ;
#40 = DIRECTION ( 'NONE',  ( -0.000000000000000000, -0.000000000000000000, 1.000000000000000000 ) ) ;
#41 =( GEOMETRIC_REPRESENTATION_CONTEXT ( 3 ) GLOBAL_UNCERTAINTY_ASSIGNED_CONTEXT ( ( #74 ) ) GLOBAL_UNIT_ASSIGNED_CONTEXT ( ( #225, #177, #4 ) ) REPRESENTATION_CONTEXT ( 'NONE', 'WORKASPACE' ) );
#42 = PRODUCT_DEFINITION_CONTEXT ( 'detailed design', #272, 'design' ) ;
#43 = LINE ( 'NONE', #18, #101 ) ;
#44 = DIRECTION ( 'NONE',  ( 0.000000000000000000, 0.000000000000000000, -1.000000000000000000 ) ) ;
#45 = DIRECTION ( 'NONE',  ( 1.000000000000000000, 0.000000000000000000, 0.000000000000000000 ) ) ;
#46 = ORIENTED_EDGE ( 'NONE', *, *, #209, .F. ) ;
#47 = VECTOR ( 'NONE', #85, 1000.000000000000000 ) ;
#48 = ORIENTED_EDGE ( 'NONE', *, *, #129, .F. ) ;
#49 =( GEOMETRIC_REPRESENTATION_CONTEXT ( 3 ) GLOBAL_UNCERTAINTY_ASSIGNED_CONTEXT ( ( #278 ) ) GLOBAL_UNIT_ASSIGNED_CONTEXT ( ( #58, #250, #91 ) ) REPRESENTATION_CONTEXT ( 'NONE', 'WORKASPACE' ) );
#50 = VERTEX_POINT ( 'NONE', #204 ) ;
#51 = PRODUCT_CONTEXT ( 'NONE', #260, 'mechanical' ) ;
#52 = CARTESIAN_POINT ( 'NONE',  ( 0.000000000000000000, 0.000000000000000000, 91.53465222435252713 ) ) ;
#53 = AXIS2_PLACEMENT_3D ( 'NONE', #90, #169, #170 ) ;
#54 = EDGE_CURVE ( 'NONE', #188, #134, #245, .T. ) ;
#55 = DIRECTION ( 'NONE',  ( 0.000000000000000000, 1.000000000000000000, 0.000000000000000000 ) ) ;
#56 = AXIS2_PLACEMENT_3D ( 'NONE', #238, #45, #44 ) ;
#57 =( NAMED_UNIT ( * ) PLANE_ANGLE_UNIT ( ) SI_UNIT ( $, .RADIAN. ) );
#58 =( LENGTH_UNIT ( ) NAMED_UNIT ( * ) SI_UNIT ( .MILLI., .METRE. ) );
#59 = FACE_OUTER_BOUND ( 'NONE', #81, .T. ) ;
#60 = CARTESIAN_POINT ( 'NONE',  ( 0.000000000000000000, 0.000000000000000000, 13.00000000000000000 ) ) ;
#61 = DIRECTION ( 'NONE',  ( -0.000000000000000000, -0.000000000000000000, 1.000000000000000000 ) ) ;
#62 = DIRECTION ( 'NONE',  ( 0.000000000000000000, 1.000000000000000000, 0.000000000000000000 ) ) ;
#63 = AXIS2_PLACEMENT_3D ( 'NONE', #131, #259, #69 ) ;
#64 = PRODUCT ( 'GLM1-050B-250', 'GLM1-050B-250', '', ( #51 ) ) ;
#65 = FILL_AREA_STYLE ('',( #39 ) ) ;
#66 = MECHANICAL_DESIGN_GEOMETRIC_PRESENTATION_REPRESENTATION (  '', ( #174 ), #49 ) ;
#67 = DIRECTION ( 'NONE',  ( -0.000000000000000000, -0.000000000000000000, -1.000000000000000000 ) ) ;
#68 = CARTESIAN_POINT ( 'NONE',  ( 0.000000000000000000, 0.000000000000000000, 13.00000000000000000 ) ) ;
#69 = DIRECTION ( 'NONE',  ( 1.000000000000000000, 0.000000000000000000, 0.000000000000000000 ) ) ;
#70 = CIRCLE ( 'NONE', #265, 224.6699999999999875 ) ;
#71 = PRODUCT_DEFINITION_SHAPE ( 'NONE', 'NONE',  #82 ) ;
#72 = CIRCLE ( 'NONE', #140, 25.39999999999999858 ) ;
#73 = ORIENTED_EDGE ( 'NONE', *, *, #256, .F. ) ;
#74 = UNCERTAINTY_MEASURE_WITH_UNIT (LENGTH_MEASURE( 1.000000000000000082E-05 ), #225, 'distance_accuracy_value', 'NONE');
#75 = APPLICATION_PROTOCOL_DEFINITION ( 'draft international standard', 'automotive_design', 1998, #260 ) ;
#76 = FACE_OUTER_BOUND ( 'NONE', #222, .T. ) ;
#77 = AXIS2_PLACEMENT_3D ( 'NONE', #218, #239, #20 ) ;
#78 = DIRECTION ( 'NONE',  ( -1.000000000000000000, 0.000000000000000000, 0.000000000000000000 ) ) ;
#79 = EDGE_CURVE ( 'NONE', #8, #9, #200, .T. ) ;
#80 = CARTESIAN_POINT ( 'NONE',  ( 0.000000000000000000, 0.000000000000000000, 13.00000000000000000 ) ) ;
#81 = EDGE_LOOP ( 'NONE', ( #137, #27, #226, #73, #157 ) ) ;
#82 = PRODUCT_DEFINITION ( 'Î´Öª', '', #108, #42 ) ;
#83 = CARTESIAN_POINT ( 'NONE',  ( 0.000000000000000000, 1.375706981822179092E-14, 14.45958786863357837 ) ) ;
#84 = VERTEX_POINT ( 'NONE', #190 ) ;
#85 = DIRECTION ( 'NONE',  ( -0.7071067811864724106, 0.000000000000000000, -0.7071067811866226238 ) ) ;
#86 = CARTESIAN_POINT ( 'NONE',  ( -3.110602869834276076E-15, -25.39999999999999147, 12.99999999999999822 ) ) ;
#87 = CARTESIAN_POINT ( 'NONE',  ( -25.22036627463847580, 0.000000000000000000, 15.87963372536152562 ) ) ;
#88 = FACE_OUTER_BOUND ( 'NONE', #141, .T. ) ;
#89 = DIRECTION ( 'NONE',  ( -0.000000000000000000, -0.000000000000000000, 1.000000000000000000 ) ) ;
#90 = CARTESIAN_POINT ( 'NONE',  ( 0.000000000000000000, 0.000000000000000000, 91.53465222435252713 ) ) ;
#91 =( NAMED_UNIT ( * ) SI_UNIT ( $, .STERADIAN. ) SOLID_ANGLE_UNIT ( ) );
#92 = VECTOR ( 'NONE', #192, 1000.000000000000000 ) ;
#93 = DIRECTION ( 'NONE',  ( -0.000000000000000000, -0.000000000000000000, -1.000000000000000000 ) ) ;
#94 = CYLINDRICAL_SURFACE ( 'NONE', #213, 25.39999999999999858 ) ;
#95 = CIRCLE ( 'NONE', #184, 25.22036627463847935 ) ;
#96 = SURFACE_SIDE_STYLE ('',( #135 ) ) ;
#97 = ORIENTED_EDGE ( 'NONE', *, *, #160, .F. ) ;
#98 = SURFACE_STYLE_USAGE ( .BOTH. , #96 ) ;
#99 = ORIENTED_EDGE ( 'NONE', *, *, #143, .F. ) ;
#100 = ORIENTED_EDGE ( 'NONE', *, *, #104, .T. ) ;
#101 = VECTOR ( 'NONE', #7, 1000.000000000000000 ) ;
#102 = DIRECTION ( 'NONE',  ( 0.000000000000000000, 0.000000000000000000, -1.000000000000000000 ) ) ;
#103 = CARTESIAN_POINT ( 'NONE',  ( 0.000000000000000000, 25.22036627463835501, 15.87963372536149720 ) ) ;
#104 = EDGE_CURVE ( 'NONE', #262, #208, #70, .T. ) ;
#105 = EDGE_LOOP ( 'NONE', ( #282, #121, #161, #5, #243 ) ) ;
#106 = DIRECTION ( 'NONE',  ( 1.000000000000000000, 0.000000000000000000, 0.000000000000000000 ) ) ;
#107 = LINE ( 'NONE', #126, #92 ) ;
#108 = PRODUCT_DEFINITION_FORMATION_WITH_SPECIFIED_SOURCE ( 'ÈÎºÎ', '', #64, .NOT_KNOWN. ) ;
#109 = DIRECTION ( 'NONE',  ( -1.000000000000000000, 1.224646799147353207E-16, 0.000000000000000000 ) ) ;
#110 = EDGE_CURVE ( 'NONE', #186, #84, #275, .T. ) ;
#111 = CARTESIAN_POINT ( 'NONE',  ( -3.088604083155972347E-15, -25.22036627463835501, 15.87963372536149720 ) ) ;
#112 = DIRECTION ( 'NONE',  ( -1.000000000000000000, 0.000000000000000000, 0.000000000000000000 ) ) ;
#113 = VERTEX_POINT ( 'NONE', #212 ) ;
#114 = AXIS2_PLACEMENT_3D ( 'NONE', #159, #229, #33 ) ;
#115 = ADVANCED_FACE ( 'NONE', ( #17 ), #268, .F. ) ;
#116 = ORIENTED_EDGE ( 'NONE', *, *, #279, .T. ) ;
#117 = DIRECTION ( 'NONE',  ( 0.000000000000000000, 0.000000000000000000, 1.000000000000000000 ) ) ;
#118 = ORIENTED_EDGE ( 'NONE', *, *, #110, .F. ) ;
#119 = ORIENTED_EDGE ( 'NONE', *, *, #230, .T. ) ;
#120 = DIRECTION ( 'NONE',  ( 1.000000000000000000, 0.000000000000000000, 0.000000000000000000 ) ) ;
#121 = ORIENTED_EDGE ( 'NONE', *, *, #143, .T. ) ;
#122 = ADVANCED_BREP_SHAPE_REPRESENTATION ( 'GLM1-050B-250', ( #153, #172 ), #127 ) ;
#123 = CARTESIAN_POINT ( 'NONE',  ( 0.000000000000000000, 0.000000000000000000, 239.1295878686335641 ) ) ;
#124 = CARTESIAN_POINT ( 'NONE',  ( -25.22036627463847935, 0.000000000000000000, 15.87963372536149720 ) ) ;
#125 = DIRECTION ( 'NONE',  ( 1.000000000000000000, 0.000000000000000000, 0.000000000000000000 ) ) ;
#126 = CARTESIAN_POINT ( 'NONE',  ( -25.39999999999999858, 0.000000000000000000, 20.00000000000000000 ) ) ;
#127 =( GEOMETRIC_REPRESENTATION_CONTEXT ( 3 ) GLOBAL_UNCERTAINTY_ASSIGNED_CONTEXT ( ( #128 ) ) GLOBAL_UNIT_ASSIGNED_CONTEXT ( ( #248, #57, #38 ) ) REPRESENTATION_CONTEXT ( 'NONE', 'WORKASPACE' ) );
#128 = UNCERTAINTY_MEASURE_WITH_UNIT (LENGTH_MEASURE( 1.000000000000000082E-05 ), #248, 'distance_accuracy_value', 'NONE');
#129 = EDGE_CURVE ( 'NONE', #50, #84, #196, .T. ) ;
#130 = CARTESIAN_POINT ( 'NONE',  ( 0.000000000000000000, 0.000000000000000000, 20.00000000000000000 ) ) ;
#131 = CARTESIAN_POINT ( 'NONE',  ( 0.000000000000000000, 0.000000000000000000, 15.69999999999996376 ) ) ;
#132 = CONICAL_SURFACE ( 'NONE', #19, 25.22036627463847580, 0.7853981633973421417 ) ;
#133 = DIRECTION ( 'NONE',  ( -1.000000000000000000, 0.000000000000000000, 0.000000000000000000 ) ) ;
#134 = VERTEX_POINT ( 'NONE', #86 ) ;
#135 = SURFACE_STYLE_FILL_AREA ( #26 ) ;
#136 = ORIENTED_EDGE ( 'NONE', *, *, #279, .F. ) ;
#137 = ORIENTED_EDGE ( 'NONE', *, *, #79, .F. ) ;
#138 = APPLICATION_PROTOCOL_DEFINITION ( 'draft international standard', 'automotive_design', 1998, #272 ) ;
#139 = ORIENTED_EDGE ( 'NONE', *, *, #254, .F. ) ;
#140 = AXIS2_PLACEMENT_3D ( 'NONE', #165, #195, #148 ) ;
#141 = EDGE_LOOP ( 'NONE', ( #139, #46, #29, #231, #99 ) ) ;
#142 = ORIENTED_EDGE ( 'NONE', *, *, #209, .T. ) ;
#143 = EDGE_CURVE ( 'NONE', #113, #267, #72, .T. ) ;
#144 = CIRCLE ( 'NONE', #77, 25.22036627463847935 ) ;
#145 = CARTESIAN_POINT ( 'NONE',  ( 0.000000000000000000, 0.000000000000000000, 15.87963372536152562 ) ) ;
#146 = CARTESIAN_POINT ( 'NONE',  ( 0.000000000000000000, 0.000000000000000000, 15.87963372536152562 ) ) ;
#147 = AXIS2_PLACEMENT_3D ( 'NONE', #11, #269, #16 ) ;
#148 = DIRECTION ( 'NONE',  ( 1.000000000000000000, 0.000000000000000000, 0.000000000000000000 ) ) ;
#149 = AXIS2_PLACEMENT_3D ( 'NONE', #60, #40, #167 ) ;
#150 = CARTESIAN_POINT ( 'NONE',  ( 0.000000000000000000, 0.000000000000000000, 239.1295878686335641 ) ) ;
#151 = DIRECTION ( 'NONE',  ( -0.000000000000000000, -0.000000000000000000, 1.000000000000000000 ) ) ;
#152 = SPHERICAL_SURFACE ( 'NONE', #22, 224.6699999999999875 ) ;
#153 = MANIFOLD_SOLID_BREP ( 'µ¹½Ç1', #242 ) ;
#154 = FACE_OUTER_BOUND ( 'NONE', #206, .T. ) ;
#155 = EDGE_CURVE ( 'NONE', #113, #186, #36, .T. ) ;
#156 = ORIENTED_EDGE ( 'NONE', *, *, #240, .T. ) ;
#157 = ORIENTED_EDGE ( 'NONE', *, *, #236, .F. ) ;
#158 = AXIS2_PLACEMENT_3D ( 'NONE', #68, #171, #197 ) ;
#159 = CARTESIAN_POINT ( 'NONE',  ( 0.000000000000000000, 0.000000000000000000, 91.53465222435252713 ) ) ;
#160 = EDGE_CURVE ( 'NONE', #267, #188, #107, .T. ) ;
#161 = ORIENTED_EDGE ( 'NONE', *, *, #160, .T. ) ;
#162 = ORIENTED_EDGE ( 'NONE', *, *, #155, .T. ) ;
#163 = AXIS2_PLACEMENT_3D ( 'NONE', #145, #166, #215 ) ;
#164 = CARTESIAN_POINT ( 'NONE',  ( -25.39999999999999858, 0.000000000000000000, 15.69999999999996376 ) ) ;
#165 = CARTESIAN_POINT ( 'NONE',  ( 0.000000000000000000, 0.000000000000000000, 15.69999999999996376 ) ) ;
#166 = DIRECTION ( 'NONE',  ( 0.000000000000000000, 0.000000000000000000, -1.000000000000000000 ) ) ;
#167 = DIRECTION ( 'NONE',  ( 1.000000000000000000, 0.000000000000000000, 0.000000000000000000 ) ) ;
#168 = AXIS2_PLACEMENT_3D ( 'NONE', #237, #67, #21 ) ;
#169 = DIRECTION ( 'NONE',  ( 1.000000000000000000, -0.000000000000000000, 0.000000000000000000 ) ) ;
#170 = DIRECTION ( 'NONE',  ( 0.000000000000000000, 0.000000000000000000, -1.000000000000000000 ) ) ;
#171 = DIRECTION ( 'NONE',  ( -0.000000000000000000, -0.000000000000000000, 1.000000000000000000 ) ) ;
#172 = AXIS2_PLACEMENT_3D ( 'NONE', #28, #117, #2 ) ;
#173 = DIRECTION ( 'NONE',  ( 0.000000000000000000, 1.000000000000000000, 0.000000000000000000 ) ) ;
#174 = STYLED_ITEM ( 'NONE', ( #235 ), #153 ) ;
#175 = EDGE_CURVE ( 'NONE', #50, #134, #261, .T. ) ;
#176 = ADVANCED_FACE ( 'NONE', ( #88 ), #281, .T. ) ;
#177 =( NAMED_UNIT ( * ) PLANE_ANGLE_UNIT ( ) SI_UNIT ( $, .RADIAN. ) );
#178 = PRESENTATION_STYLE_ASSIGNMENT (( #98 ) ) ;
#179 = EDGE_LOOP ( 'NONE', ( #35, #119, #249, #31 ) ) ;
#180 = MECHANICAL_DESIGN_GEOMETRIC_PRESENTATION_REPRESENTATION (  '', ( #181 ), #41 ) ;
#181 = STYLED_ITEM ( 'NONE', ( #178 ), #122 ) ;
#182 = ORIENTED_EDGE ( 'NONE', *, *, #54, .F. ) ;
#183 = VERTEX_POINT ( 'NONE', #124 ) ;
#184 = AXIS2_PLACEMENT_3D ( 'NONE', #277, #151, #257 ) ;
#185 = DIRECTION ( 'NONE',  ( -1.000000000000000000, 0.000000000000000000, 0.000000000000000000 ) ) ;
#186 = VERTEX_POINT ( 'NONE', #12 ) ;
#187 = PRODUCT_RELATED_PRODUCT_CATEGORY ( 'part', '', ( #64 ) ) ;
#188 = VERTEX_POINT ( 'NONE', #252 ) ;
#189 = EDGE_CURVE ( 'NONE', #183, #208, #194, .T. ) ;
#190 = CARTESIAN_POINT ( 'NONE',  ( 0.000000000000000000, 25.39999999999999147, 12.99999999999999822 ) ) ;
#191 = AXIS2_PLACEMENT_3D ( 'NONE', #253, #232, #106 ) ;
#192 = DIRECTION ( 'NONE',  ( -0.000000000000000000, -0.000000000000000000, -1.000000000000000000 ) ) ;
#193 = SURFACE_SIDE_STYLE ('',( #270 ) ) ;
#194 = CIRCLE ( 'NONE', #199, 25.22036627463847935 ) ;
#195 = DIRECTION ( 'NONE',  ( 0.000000000000000000, 0.000000000000000000, -1.000000000000000000 ) ) ;
#196 = CIRCLE ( 'NONE', #53, 82.54000000000000625 ) ;
#197 = DIRECTION ( 'NONE',  ( 1.000000000000000000, 0.000000000000000000, 0.000000000000000000 ) ) ;
#198 = FACE_OUTER_BOUND ( 'NONE', #105, .T. ) ;
#199 = AXIS2_PLACEMENT_3D ( 'NONE', #255, #61, #125 ) ;
#200 = CIRCLE ( 'NONE', #191, 25.22036627463847935 ) ;
#201 = EDGE_CURVE ( 'NONE', #134, #186, #13, .T. ) ;
#202 = ORIENTED_EDGE ( 'NONE', *, *, #79, .T. ) ;
#203 = ORIENTED_EDGE ( 'NONE', *, *, #129, .T. ) ;
#204 = CARTESIAN_POINT ( 'NONE',  ( 0.000000000000000000, 5.054117340081126317E-15, 8.994652224352527980 ) ) ;
#205 = ADVANCED_FACE ( 'NONE', ( #258 ), #152, .F. ) ;
#206 = EDGE_LOOP ( 'NONE', ( #156, #162, #3, #116, #97 ) ) ;
#207 = CIRCLE ( 'NONE', #274, 25.39999999999999503 ) ;
#208 = VERTEX_POINT ( 'NONE', #111 ) ;
#209 = EDGE_CURVE ( 'NONE', #208, #8, #144, .T. ) ;
#210 = VECTOR ( 'NONE', #37, 1000.000000000000000 ) ;
#211 = CARTESIAN_POINT ( 'NONE',  ( 0.000000000000000000, 0.000000000000000000, 13.00000000000000000 ) ) ;
#212 = CARTESIAN_POINT ( 'NONE',  ( 25.39999999999999858, 3.110602869834276865E-15, 15.69999999999996376 ) ) ;
#213 = AXIS2_PLACEMENT_3D ( 'NONE', #130, #93, #112 ) ;
#214 = CARTESIAN_POINT ( 'NONE',  ( 25.39999999999999858, 3.110602869834276865E-15, 20.00000000000000000 ) ) ;
#215 = DIRECTION ( 'NONE',  ( -1.000000000000000000, 0.000000000000000000, 0.000000000000000000 ) ) ;
#216 = DIRECTION ( 'NONE',  ( -1.000000000000000000, 0.000000000000000000, 0.000000000000000000 ) ) ;
#217 = CIRCLE ( 'NONE', #63, 25.39999999999999858 ) ;
#218 = CARTESIAN_POINT ( 'NONE',  ( 0.000000000000000000, 0.000000000000000000, 15.87963372536149720 ) ) ;
#219 = ADVANCED_FACE ( 'NONE', ( #198 ), #94, .T. ) ;
#220 = CYLINDRICAL_SURFACE ( 'NONE', #168, 25.39999999999999858 ) ;
#221 = AXIS2_PLACEMENT_3D ( 'NONE', #52, #78, #55 ) ;
#222 = EDGE_LOOP ( 'NONE', ( #266, #203, #118, #224 ) ) ;
#223 = FILL_AREA_STYLE_COLOUR ( '', #234 ) ;
#224 = ORIENTED_EDGE ( 'NONE', *, *, #201, .F. ) ;
#225 =( LENGTH_UNIT ( ) NAMED_UNIT ( * ) SI_UNIT ( .MILLI., .METRE. ) );
#226 = ORIENTED_EDGE ( 'NONE', *, *, #240, .F. ) ;
#227 = AXIS2_PLACEMENT_3D ( 'NONE', #150, #216, #62 ) ;
#228 = ORIENTED_EDGE ( 'NONE', *, *, #175, .T. ) ;
#229 = DIRECTION ( 'NONE',  ( -1.000000000000000000, 0.000000000000000000, 0.000000000000000000 ) ) ;
#230 = EDGE_CURVE ( 'NONE', #262, #9, #6, .T. ) ;
#231 = ORIENTED_EDGE ( 'NONE', *, *, #256, .T. ) ;
#232 = DIRECTION ( 'NONE',  ( -0.000000000000000000, -0.000000000000000000, 1.000000000000000000 ) ) ;
#233 = DIRECTION ( 'NONE',  ( -1.224646799147353207E-16, -1.000000000000000000, 0.000000000000000000 ) ) ;
#234 = COLOUR_RGB ( '',1.000000000000000000, 1.000000000000000000, 1.000000000000000000 ) ;
#235 = PRESENTATION_STYLE_ASSIGNMENT (( #14 ) ) ;
#236 = EDGE_CURVE ( 'NONE', #9, #183, #95, .T. ) ;
#237 = CARTESIAN_POINT ( 'NONE',  ( 0.000000000000000000, 0.000000000000000000, 20.00000000000000000 ) ) ;
#238 = CARTESIAN_POINT ( 'NONE',  ( 0.000000000000000000, 0.000000000000000000, 239.1295878686335641 ) ) ;
#239 = DIRECTION ( 'NONE',  ( -0.000000000000000000, -0.000000000000000000, 1.000000000000000000 ) ) ;
#240 = EDGE_CURVE ( 'NONE', #267, #113, #217, .T. ) ;
#241 = ORIENTED_EDGE ( 'NONE', *, *, #230, .F. ) ;
#242 = CLOSED_SHELL ( 'NONE', ( #280, #205, #23, #251, #219, #34, #115, #176 ) ) ;
#243 = ORIENTED_EDGE ( 'NONE', *, *, #201, .T. ) ;
#244 = SPHERICAL_SURFACE ( 'NONE', #221, 82.54000000000000625 ) ;
#245 = CIRCLE ( 'NONE', #30, 25.39999999999999503 ) ;
#246 = CARTESIAN_POINT ( 'NONE',  ( 25.22036627463847935, 3.099603476495131903E-15, 15.87963372536149720 ) ) ;
#247 = EDGE_LOOP ( 'NONE', ( #241, #100, #142, #202 ) ) ;
#248 =( LENGTH_UNIT ( ) NAMED_UNIT ( * ) SI_UNIT ( .MILLI., .METRE. ) );
#249 = ORIENTED_EDGE ( 'NONE', *, *, #236, .T. ) ;
#250 =( NAMED_UNIT ( * ) PLANE_ANGLE_UNIT ( ) SI_UNIT ( $, .RADIAN. ) );
#251 = ADVANCED_FACE ( 'NONE', ( #154 ), #220, .T. ) ;
#252 = CARTESIAN_POINT ( 'NONE',  ( -25.39999999999999503, 0.000000000000000000, 13.00000000000000000 ) ) ;
#253 = CARTESIAN_POINT ( 'NONE',  ( 0.000000000000000000, 0.000000000000000000, 15.87963372536149720 ) ) ;
#254 = EDGE_CURVE ( 'NONE', #8, #113, #43, .T. ) ;
#255 = CARTESIAN_POINT ( 'NONE',  ( 0.000000000000000000, 0.000000000000000000, 15.87963372536149720 ) ) ;
#256 = EDGE_CURVE ( 'NONE', #183, #267, #10, .T. ) ;
#257 = DIRECTION ( 'NONE',  ( 1.000000000000000000, 0.000000000000000000, 0.000000000000000000 ) ) ;
#258 = FACE_OUTER_BOUND ( 'NONE', #247, .T. ) ;
#259 = DIRECTION ( 'NONE',  ( 0.000000000000000000, 0.000000000000000000, -1.000000000000000000 ) ) ;
#260 = APPLICATION_CONTEXT ( 'automotive_design' ) ;
#261 = CIRCLE ( 'NONE', #147, 82.54000000000000625 ) ;
#262 = VERTEX_POINT ( 'NONE', #83 ) ;
#263 = FACE_OUTER_BOUND ( 'NONE', #25, .T. ) ;
#264 = SPHERICAL_SURFACE ( 'NONE', #114, 82.54000000000000625 ) ;
#265 = AXIS2_PLACEMENT_3D ( 'NONE', #123, #109, #233 ) ;
#266 = ORIENTED_EDGE ( 'NONE', *, *, #175, .F. ) ;
#267 = VERTEX_POINT ( 'NONE', #164 ) ;
#268 = SPHERICAL_SURFACE ( 'NONE', #227, 224.6699999999999875 ) ;
#269 = DIRECTION ( 'NONE',  ( -1.000000000000000000, 1.224646799147353207E-16, 0.000000000000000000 ) ) ;
#270 = SURFACE_STYLE_FILL_AREA ( #65 ) ;
#271 = SHAPE_DEFINITION_REPRESENTATION ( #71, #122 ) ;
#272 = APPLICATION_CONTEXT ( 'automotive_design' ) ;
#273 = DIRECTION ( 'NONE',  ( 1.000000000000000000, 0.000000000000000000, 0.000000000000000000 ) ) ;
#274 = AXIS2_PLACEMENT_3D ( 'NONE', #80, #32, #120 ) ;
#275 = CIRCLE ( 'NONE', #149, 25.39999999999999503 ) ;
#276 = CARTESIAN_POINT ( 'NONE',  ( 0.000000000000000000, 0.000000000000000000, 239.1295878686335641 ) ) ;
#277 = CARTESIAN_POINT ( 'NONE',  ( 0.000000000000000000, 0.000000000000000000, 15.87963372536149720 ) ) ;
#278 = UNCERTAINTY_MEASURE_WITH_UNIT (LENGTH_MEASURE( 1.000000000000000082E-05 ), #58, 'distance_accuracy_value', 'NONE');
#279 = EDGE_CURVE ( 'NONE', #84, #188, #207, .T. ) ;
#280 = ADVANCED_FACE ( 'NONE', ( #59 ), #132, .T. ) ;
#281 = CONICAL_SURFACE ( 'NONE', #163, 25.22036627463847580, 0.7853981633973421417 ) ;
#282 = ORIENTED_EDGE ( 'NONE', *, *, #155, .F. ) ;
ENDSEC;
END-ISO-10303-21;
