ISO-10303-21;
HEADER;
FILE_DESCRIPTION (( 'STEP AP214' ),
    '1' );
FILE_NAME ('GLM1-050B-300.STEP',
    '2024-08-09T02:39:29',
    ( 'Windows User' ),
    ( 'P R C' ),
    'SwSTEP 2.0',
    'SolidWorks 2022',
    '' );
FILE_SCHEMA (( 'AUTOMOTIVE_DESIGN' ));
ENDSEC;

DATA;
#1 = AXIS2_PLACEMENT_3D ( 'NONE', #307, #76, #134 ) ;
#2 = ADVANCED_FACE ( 'NONE', ( #80 ), #190, .T. ) ;
#3 = VERTEX_POINT ( 'NONE', #265 ) ;
#4 = ORIENTED_EDGE ( 'NONE', *, *, #179, .F. ) ;
#5 = ORIENTED_EDGE ( 'NONE', *, *, #45, .F. ) ;
#6 = ORIENTED_EDGE ( 'NONE', *, *, #164, .T. ) ;
#7 = ORIENTED_EDGE ( 'NONE', *, *, #323, .T. ) ;
#8 = CARTESIAN_POINT ( 'NONE',  ( -25.20669079081242003, 3.098766094620413518E-15, 12.94948413701273182 ) ) ;
#9 = ORIENTED_EDGE ( 'NONE', *, *, #280, .T. ) ;
#10 = ORIENTED_EDGE ( 'NONE', *, *, #187, .T. ) ;
#11 = DIRECTION ( 'NONE',  ( 1.000000000000000000, 0.000000000000000000, 0.000000000000000000 ) ) ;
#12 = VERTEX_POINT ( 'NONE', #218 ) ;
#13 = UNCERTAINTY_MEASURE_WITH_UNIT (LENGTH_MEASURE( 1.000000000000000082E-05 ), #192, 'distance_accuracy_value', 'NONE');
#14 = CARTESIAN_POINT ( 'NONE',  ( 0.000000000000000000, 0.000000000000000000, 13.28032383718598375 ) ) ;
#15 = CARTESIAN_POINT ( 'NONE',  ( 25.21668983323140623, 3.099378359385061019E-15, 15.98331016676862681 ) ) ;
#16 = AXIS2_PLACEMENT_3D ( 'NONE', #273, #92, #219 ) ;
#17 = CARTESIAN_POINT ( 'NONE',  ( 0.000000000000000000, 0.000000000000000000, 109.8031321807306142 ) ) ;
#18 = ADVANCED_FACE ( 'NONE', ( #57 ), #132, .T. ) ;
#19 = CARTESIAN_POINT ( 'NONE',  ( 0.000000000000000000, 6.128132582933356375E-15, 9.723132180730592822 ) ) ;
#20 = CARTESIAN_POINT ( 'NONE',  ( 0.000000000000000000, 0.000000000000000000, 13.28032383718598375 ) ) ;
#21 = AXIS2_PLACEMENT_3D ( 'NONE', #20, #205, #305 ) ;
#22 = DIRECTION ( 'NONE',  ( 0.000000000000000000, 1.000000000000000000, 0.000000000000000000 ) ) ;
#23 = VECTOR ( 'NONE', #99, 1000.000000000000000 ) ;
#24 = SURFACE_SIDE_STYLE ('',( #131 ) ) ;
#25 = PRODUCT ( 'GLM1-050B-300', 'GLM1-050B-300', '', ( #148 ) ) ;
#26 = VERTEX_POINT ( 'NONE', #319 ) ;
#27 = ORIENTED_EDGE ( 'NONE', *, *, #179, .T. ) ;
#28 = VERTEX_POINT ( 'NONE', #295 ) ;
#29 = ORIENTED_EDGE ( 'NONE', *, *, #130, .T. ) ;
#30 = EDGE_CURVE ( 'NONE', #181, #135, #94, .T. ) ;
#31 = VERTEX_POINT ( 'NONE', #8 ) ;
#32 = AXIS2_PLACEMENT_3D ( 'NONE', #201, #38, #277 ) ;
#33 = CARTESIAN_POINT ( 'NONE',  ( 0.000000000000000000, 0.000000000000000000, 15.98331016676862681 ) ) ;
#34 = ORIENTED_EDGE ( 'NONE', *, *, #72, .T. ) ;
#35 = CARTESIAN_POINT ( 'NONE',  ( 0.000000000000000000, 0.000000000000000000, 293.9618937912173351 ) ) ;
#36 =( LENGTH_UNIT ( ) NAMED_UNIT ( * ) SI_UNIT ( .MILLI., .METRE. ) );
#37 = FACE_OUTER_BOUND ( 'NONE', #49, .T. ) ;
#38 = DIRECTION ( 'NONE',  ( 0.000000000000000000, 0.000000000000000000, -1.000000000000000000 ) ) ;
#39 = PRODUCT_DEFINITION_CONTEXT ( 'detailed design', #42, 'design' ) ;
#40 = AXIS2_PLACEMENT_3D ( 'NONE', #254, #229, #22 ) ;
#41 = CARTESIAN_POINT ( 'NONE',  ( -25.21668983323140623, 0.000000000000000000, 15.98331016676862681 ) ) ;
#42 = APPLICATION_CONTEXT ( 'automotive_design' ) ;
#43 = AXIS2_PLACEMENT_3D ( 'NONE', #33, #53, #165 ) ;
#44 = AXIS2_PLACEMENT_3D ( 'NONE', #121, #124, #233 ) ;
#45 = EDGE_CURVE ( 'NONE', #159, #83, #73, .T. ) ;
#46 = AXIS2_PLACEMENT_3D ( 'NONE', #215, #239, #86 ) ;
#47 = FILL_AREA_STYLE ('',( #281 ) ) ;
#48 = EDGE_CURVE ( 'NONE', #83, #314, #177, .T. ) ;
#49 = EDGE_LOOP ( 'NONE', ( #60, #294, #208, #114 ) ) ;
#50 = VERTEX_POINT ( 'NONE', #221 ) ;
#51 = ORIENTED_EDGE ( 'NONE', *, *, #203, .F. ) ;
#52 = CIRCLE ( 'NONE', #290, 25.39999999999999858 ) ;
#53 = DIRECTION ( 'NONE',  ( -0.000000000000000000, -0.000000000000000000, 1.000000000000000000 ) ) ;
#54 = EDGE_CURVE ( 'NONE', #112, #12, #107, .T. ) ;
#55 = CARTESIAN_POINT ( 'NONE',  ( 0.000000000000000000, 0.000000000000000000, 13.28032383718598375 ) ) ;
#56 = ORIENTED_EDGE ( 'NONE', *, *, #237, .T. ) ;
#57 = FACE_OUTER_BOUND ( 'NONE', #185, .T. ) ;
#58 =( GEOMETRIC_REPRESENTATION_CONTEXT ( 3 ) GLOBAL_UNCERTAINTY_ASSIGNED_CONTEXT ( ( #13 ) ) GLOBAL_UNIT_ASSIGNED_CONTEXT ( ( #192, #189, #142 ) ) REPRESENTATION_CONTEXT ( 'NONE', 'WORKASPACE' ) );
#59 = PRESENTATION_STYLE_ASSIGNMENT (( #103 ) ) ;
#60 = ORIENTED_EDGE ( 'NONE', *, *, #187, .F. ) ;
#61 = SURFACE_SIDE_STYLE ('',( #220 ) ) ;
#62 = AXIS2_PLACEMENT_3D ( 'NONE', #63, #193, #168 ) ;
#63 = CARTESIAN_POINT ( 'NONE',  ( 0.000000000000000000, 0.000000000000000000, 109.8031321807306142 ) ) ;
#64 = EDGE_CURVE ( 'NONE', #159, #3, #312, .T. ) ;
#65 = EDGE_LOOP ( 'NONE', ( #79, #236, #51, #6, #262 ) ) ;
#66 = CARTESIAN_POINT ( 'NONE',  ( 0.000000000000000000, 0.000000000000000000, 13.28032383718598375 ) ) ;
#67 = EDGE_CURVE ( 'NONE', #111, #159, #153, .T. ) ;
#68 = CARTESIAN_POINT ( 'NONE',  ( -25.39999999999999858, 0.000000000000000000, 13.28032383718598375 ) ) ;
#69 = DIRECTION ( 'NONE',  ( -1.000000000000000000, 1.224646799147353207E-16, 0.000000000000000000 ) ) ;
#70 = VECTOR ( 'NONE', #195, 1000.000000000000114 ) ;
#71 = CARTESIAN_POINT ( 'NONE',  ( 0.000000000000000000, 0.000000000000000000, 12.94948413701273182 ) ) ;
#72 = EDGE_CURVE ( 'NONE', #135, #112, #152, .T. ) ;
#73 = CIRCLE ( 'NONE', #43, 25.21668983323140623 ) ;
#74 = ORIENTED_EDGE ( 'NONE', *, *, #48, .F. ) ;
#75 = MECHANICAL_DESIGN_GEOMETRIC_PRESENTATION_REPRESENTATION (  '', ( #125 ), #58 ) ;
#76 = DIRECTION ( 'NONE',  ( 0.000000000000000000, 0.000000000000000000, -1.000000000000000000 ) ) ;
#77 = AXIS2_PLACEMENT_3D ( 'NONE', #139, #245, #118 ) ;
#78 = ORIENTED_EDGE ( 'NONE', *, *, #285, .T. ) ;
#79 = ORIENTED_EDGE ( 'NONE', *, *, #64, .F. ) ;
#80 = FACE_OUTER_BOUND ( 'NONE', #217, .T. ) ;
#81 = UNCERTAINTY_MEASURE_WITH_UNIT (LENGTH_MEASURE( 1.000000000000000082E-05 ), #170, 'distance_accuracy_value', 'NONE');
#82 = ORIENTED_EDGE ( 'NONE', *, *, #331, .F. ) ;
#83 = VERTEX_POINT ( 'NONE', #287 ) ;
#84 = EDGE_CURVE ( 'NONE', #3, #50, #180, .T. ) ;
#85 = PRODUCT_DEFINITION_FORMATION_WITH_SPECIFIED_SOURCE ( 'ÈÎºÎ', '', #25, .NOT_KNOWN. ) ;
#86 = DIRECTION ( 'NONE',  ( -1.000000000000000000, 0.000000000000000000, 0.000000000000000000 ) ) ;
#87 = DIRECTION ( 'NONE',  ( 0.000000000000000000, 0.000000000000000000, -1.000000000000000000 ) ) ;
#88 = CIRCLE ( 'NONE', #16, 25.20669079081241648 ) ;
#89 = FACE_OUTER_BOUND ( 'NONE', #238, .T. ) ;
#90 = DIRECTION ( 'NONE',  ( 0.000000000000000000, 0.000000000000000000, -1.000000000000000000 ) ) ;
#91 = DIRECTION ( 'NONE',  ( -1.000000000000000000, 0.000000000000000000, 0.000000000000000000 ) ) ;
#92 = DIRECTION ( 'NONE',  ( 0.000000000000000000, 0.000000000000000000, -1.000000000000000000 ) ) ;
#93 = PRESENTATION_LAYER_ASSIGNMENT (  '', '', ( #125 ) ) ;
#94 = CIRCLE ( 'NONE', #62, 100.0800000000000125 ) ;
#95 = CARTESIAN_POINT ( 'NONE',  ( 0.000000000000000000, 25.20669079081240582, 12.94948413701272472 ) ) ;
#96 = ADVANCED_FACE ( 'NONE', ( #182 ), #310, .T. ) ;
#97 = DIRECTION ( 'NONE',  ( -0.000000000000000000, -0.000000000000000000, 1.000000000000000000 ) ) ;
#98 = CARTESIAN_POINT ( 'NONE',  ( 25.39999999999999858, 3.110602869834276865E-15, 20.00000000000000000 ) ) ;
#99 = DIRECTION ( 'NONE',  ( -0.000000000000000000, -0.000000000000000000, -1.000000000000000000 ) ) ;
#100 = CIRCLE ( 'NONE', #173, 25.20669079081241648 ) ;
#101 = ADVANCED_FACE ( 'NONE', ( #298 ), #191, .T. ) ;
#102 = CARTESIAN_POINT ( 'NONE',  ( 0.000000000000000000, 0.000000000000000000, 15.98331016676862681 ) ) ;
#103 = SURFACE_STYLE_USAGE ( .BOTH. , #24 ) ;
#104 = AXIS2_PLACEMENT_3D ( 'NONE', #269, #136, #156 ) ;
#105 = PRODUCT_DEFINITION ( 'Î´Öª', '', #85, #39 ) ;
#106 = EDGE_LOOP ( 'NONE', ( #188, #27, #9, #56 ) ) ;
#107 = LINE ( 'NONE', #186, #258 ) ;
#108 = ORIENTED_EDGE ( 'NONE', *, *, #323, .F. ) ;
#109 = CARTESIAN_POINT ( 'NONE',  ( 0.000000000000000000, 0.000000000000000000, 15.98331016676862681 ) ) ;
#110 = AXIS2_PLACEMENT_3D ( 'NONE', #324, #91, #197 ) ;
#111 = VERTEX_POINT ( 'NONE', #247 ) ;
#112 = VERTEX_POINT ( 'NONE', #143 ) ;
#113 = CARTESIAN_POINT ( 'NONE',  ( 0.000000000000000000, 0.000000000000000000, 15.79999999999998117 ) ) ;
#114 = ORIENTED_EDGE ( 'NONE', *, *, #45, .T. ) ;
#115 = CARTESIAN_POINT ( 'NONE',  ( 0.000000000000000000, 0.000000000000000000, 109.8031321807306142 ) ) ;
#116 =( NAMED_UNIT ( * ) SI_UNIT ( $, .STERADIAN. ) SOLID_ANGLE_UNIT ( ) );
#117 = FILL_AREA_STYLE ('',( #140 ) ) ;
#118 = DIRECTION ( 'NONE',  ( 1.000000000000000000, 0.000000000000000000, 0.000000000000000000 ) ) ;
#119 = CONICAL_SURFACE ( 'NONE', #32, 25.21668983323140623, 0.7853981633973063925 ) ;
#120 = SPHERICAL_SURFACE ( 'NONE', #272, 279.1200000000000614 ) ;
#121 = CARTESIAN_POINT ( 'NONE',  ( 0.000000000000000000, 0.000000000000000000, 15.98331016676862681 ) ) ;
#122 =( NAMED_UNIT ( * ) PLANE_ANGLE_UNIT ( ) SI_UNIT ( $, .RADIAN. ) );
#123 = EDGE_CURVE ( 'NONE', #50, #158, #174, .T. ) ;
#124 = DIRECTION ( 'NONE',  ( -0.000000000000000000, -0.000000000000000000, 1.000000000000000000 ) ) ;
#125 = STYLED_ITEM ( 'NONE', ( #167 ), #322 ) ;
#126 = CARTESIAN_POINT ( 'NONE',  ( 0.000000000000000000, 0.000000000000000000, 293.9618937912173351 ) ) ;
#127 = DIRECTION ( 'NONE',  ( 0.000000000000000000, 0.000000000000000000, 1.000000000000000000 ) ) ;
#128 = CIRCLE ( 'NONE', #309, 279.1200000000000614 ) ;
#129 = SHAPE_DEFINITION_REPRESENTATION ( #267, #322 ) ;
#130 = EDGE_CURVE ( 'NONE', #12, #158, #137, .T. ) ;
#131 = SURFACE_STYLE_FILL_AREA ( #47 ) ;
#132 = CYLINDRICAL_SURFACE ( 'NONE', #46, 25.39999999999999858 ) ;
#133 = ORIENTED_EDGE ( 'NONE', *, *, #303, .F. ) ;
#134 = DIRECTION ( 'NONE',  ( 1.000000000000000000, 0.000000000000000000, 0.000000000000000000 ) ) ;
#135 = VERTEX_POINT ( 'NONE', #95 ) ;
#136 = DIRECTION ( 'NONE',  ( -0.000000000000000000, -0.000000000000000000, 1.000000000000000000 ) ) ;
#137 = CIRCLE ( 'NONE', #304, 25.39999999999999858 ) ;
#138 = ORIENTED_EDGE ( 'NONE', *, *, #48, .T. ) ;
#139 = CARTESIAN_POINT ( 'NONE',  ( 0.000000000000000000, 0.000000000000000000, 12.94948413701273182 ) ) ;
#140 = FILL_AREA_STYLE_COLOUR ( '', #198 ) ;
#141 = CARTESIAN_POINT ( 'NONE',  ( 25.21668983323140623, 3.088153848935844384E-15, 15.98331016676862681 ) ) ;
#142 =( NAMED_UNIT ( * ) SI_UNIT ( $, .STERADIAN. ) SOLID_ANGLE_UNIT ( ) );
#143 = CARTESIAN_POINT ( 'NONE',  ( 25.20669079081242003, 0.000000000000000000, 12.94948413701273182 ) ) ;
#144 = CARTESIAN_POINT ( 'NONE',  ( 0.000000000000000000, 0.000000000000000000, 20.00000000000000000 ) ) ;
#145 = APPLICATION_CONTEXT ( 'automotive_design' ) ;
#146 = CIRCLE ( 'NONE', #330, 25.39999999999999858 ) ;
#147 = DIRECTION ( 'NONE',  ( -0.000000000000000000, -0.000000000000000000, -1.000000000000000000 ) ) ;
#148 = PRODUCT_CONTEXT ( 'NONE', #145, 'mechanical' ) ;
#149 =( NAMED_UNIT ( * ) SI_UNIT ( $, .STERADIAN. ) SOLID_ANGLE_UNIT ( ) );
#150 = DIRECTION ( 'NONE',  ( -0.000000000000000000, -0.000000000000000000, -1.000000000000000000 ) ) ;
#151 =( GEOMETRIC_REPRESENTATION_CONTEXT ( 3 ) GLOBAL_UNCERTAINTY_ASSIGNED_CONTEXT ( ( #81 ) ) GLOBAL_UNIT_ASSIGNED_CONTEXT ( ( #170, #122, #149 ) ) REPRESENTATION_CONTEXT ( 'NONE', 'WORKASPACE' ) );
#152 = CIRCLE ( 'NONE', #77, 25.20669079081241648 ) ;
#153 = CIRCLE ( 'NONE', #296, 25.21668983323140623 ) ;
#154 = ADVANCED_FACE ( 'NONE', ( #274 ), #119, .T. ) ;
#155 = ORIENTED_EDGE ( 'NONE', *, *, #282, .F. ) ;
#156 = DIRECTION ( 'NONE',  ( 1.000000000000000000, 0.000000000000000000, 0.000000000000000000 ) ) ;
#157 =( GEOMETRIC_REPRESENTATION_CONTEXT ( 3 ) GLOBAL_UNCERTAINTY_ASSIGNED_CONTEXT ( ( #283 ) ) GLOBAL_UNIT_ASSIGNED_CONTEXT ( ( #36, #325, #116 ) ) REPRESENTATION_CONTEXT ( 'NONE', 'WORKASPACE' ) );
#158 = VERTEX_POINT ( 'NONE', #68 ) ;
#159 = VERTEX_POINT ( 'NONE', #15 ) ;
#160 = EDGE_LOOP ( 'NONE', ( #316, #264, #29, #297 ) ) ;
#161 = ORIENTED_EDGE ( 'NONE', *, *, #183, .F. ) ;
#162 = AXIS2_PLACEMENT_3D ( 'NONE', #115, #263, #289 ) ;
#163 = ORIENTED_EDGE ( 'NONE', *, *, #280, .F. ) ;
#164 = EDGE_CURVE ( 'NONE', #314, #50, #327, .T. ) ;
#165 = DIRECTION ( 'NONE',  ( 1.000000000000000000, 0.000000000000000000, 0.000000000000000000 ) ) ;
#166 = CONICAL_SURFACE ( 'NONE', #21, 25.39999999999999858, 0.5287944249354518123 ) ;
#167 = PRESENTATION_STYLE_ASSIGNMENT (( #315 ) ) ;
#168 = DIRECTION ( 'NONE',  ( 0.000000000000000000, 0.000000000000000000, -1.000000000000000000 ) ) ;
#169 = CIRCLE ( 'NONE', #257, 279.1200000000000614 ) ;
#170 =( LENGTH_UNIT ( ) NAMED_UNIT ( * ) SI_UNIT ( .MILLI., .METRE. ) );
#171 = CARTESIAN_POINT ( 'NONE',  ( 0.000000000000000000, 0.000000000000000000, 293.9618937912173351 ) ) ;
#172 = APPLICATION_PROTOCOL_DEFINITION ( 'draft international standard', 'automotive_design', 1998, #145 ) ;
#173 = AXIS2_PLACEMENT_3D ( 'NONE', #71, #90, #11 ) ;
#174 = LINE ( 'NONE', #199, #222 ) ;
#175 = ADVANCED_FACE ( 'NONE', ( #37 ), #120, .F. ) ;
#176 = DIRECTION ( 'NONE',  ( 1.000000000000000000, 0.000000000000000000, 0.000000000000000000 ) ) ;
#177 = CIRCLE ( 'NONE', #104, 25.21668983323140623 ) ;
#178 = CARTESIAN_POINT ( 'NONE',  ( 0.000000000000000000, 0.000000000000000000, 0.000000000000000000 ) ) ;
#179 = EDGE_CURVE ( 'NONE', #181, #26, #266, .T. ) ;
#180 = CIRCLE ( 'NONE', #1, 25.39999999999999858 ) ;
#181 = VERTEX_POINT ( 'NONE', #19 ) ;
#182 = FACE_OUTER_BOUND ( 'NONE', #160, .T. ) ;
#183 = EDGE_CURVE ( 'NONE', #28, #111, #128, .T. ) ;
#184 = ORIENTED_EDGE ( 'NONE', *, *, #237, .F. ) ;
#185 = EDGE_LOOP ( 'NONE', ( #82, #244, #268, #78 ) ) ;
#186 = CARTESIAN_POINT ( 'NONE',  ( 25.39999999999999858, 0.000000000000000000, 13.28032383718598375 ) ) ;
#187 = EDGE_CURVE ( 'NONE', #28, #83, #169, .T. ) ;
#188 = ORIENTED_EDGE ( 'NONE', *, *, #30, .F. ) ;
#189 =( NAMED_UNIT ( * ) PLANE_ANGLE_UNIT ( ) SI_UNIT ( $, .RADIAN. ) );
#190 = SPHERICAL_SURFACE ( 'NONE', #162, 100.0800000000000125 ) ;
#191 = CONICAL_SURFACE ( 'NONE', #235, 25.39999999999999858, 0.5287944249354518123 ) ;
#192 =( LENGTH_UNIT ( ) NAMED_UNIT ( * ) SI_UNIT ( .MILLI., .METRE. ) );
#193 = DIRECTION ( 'NONE',  ( 1.000000000000000000, -0.000000000000000000, 0.000000000000000000 ) ) ;
#194 = CARTESIAN_POINT ( 'NONE',  ( -25.21668983323140623, 0.000000000000000000, 15.98331016676862681 ) ) ;
#195 = DIRECTION ( 'NONE',  ( -0.7071067811864470976, 0.000000000000000000, -0.7071067811866478259 ) ) ;
#196 = FACE_OUTER_BOUND ( 'NONE', #106, .T. ) ;
#197 = DIRECTION ( 'NONE',  ( 0.000000000000000000, 1.000000000000000000, 0.000000000000000000 ) ) ;
#198 = COLOUR_RGB ( '',1.000000000000000000, 1.000000000000000000, 1.000000000000000000 ) ;
#199 = CARTESIAN_POINT ( 'NONE',  ( -25.39999999999999858, 0.000000000000000000, 20.00000000000000000 ) ) ;
#200 = ADVANCED_FACE ( 'NONE', ( #89 ), #225, .F. ) ;
#201 = CARTESIAN_POINT ( 'NONE',  ( 0.000000000000000000, 0.000000000000000000, 15.98331016676862681 ) ) ;
#202 = SPHERICAL_SURFACE ( 'NONE', #40, 100.0800000000000125 ) ;
#203 = EDGE_CURVE ( 'NONE', #314, #111, #300, .T. ) ;
#204 = STYLED_ITEM ( 'NONE', ( #59 ), #256 ) ;
#205 = DIRECTION ( 'NONE',  ( -0.000000000000000000, -0.000000000000000000, 1.000000000000000000 ) ) ;
#206 = CLOSED_SHELL ( 'NONE', ( #101, #154, #175, #320, #96, #18, #2, #200, #214, #251 ) ) ;
#207 = CARTESIAN_POINT ( 'NONE',  ( 0.000000000000000000, 0.000000000000000000, 12.94948413701273182 ) ) ;
#208 = ORIENTED_EDGE ( 'NONE', *, *, #67, .T. ) ;
#209 = DIRECTION ( 'NONE',  ( 0.7071067811864470976, 8.659560562353703961E-17, -0.7071067811866478259 ) ) ;
#210 = EDGE_LOOP ( 'NONE', ( #184, #7, #241, #311, #306 ) ) ;
#211 = DIRECTION ( 'NONE',  ( 1.000000000000000000, 0.000000000000000000, 0.000000000000000000 ) ) ;
#212 = AXIS2_PLACEMENT_3D ( 'NONE', #17, #69, #252 ) ;
#213 = ORIENTED_EDGE ( 'NONE', *, *, #54, .T. ) ;
#214 = ADVANCED_FACE ( 'NONE', ( #284 ), #313, .T. ) ;
#215 = CARTESIAN_POINT ( 'NONE',  ( 0.000000000000000000, 0.000000000000000000, 20.00000000000000000 ) ) ;
#216 = CIRCLE ( 'NONE', #249, 25.20669079081241648 ) ;
#217 = EDGE_LOOP ( 'NONE', ( #4, #240, #34, #259 ) ) ;
#218 = CARTESIAN_POINT ( 'NONE',  ( 25.39999999999999858, 3.110602869834276865E-15, 13.28032383718598375 ) ) ;
#219 = DIRECTION ( 'NONE',  ( 1.000000000000000000, 0.000000000000000000, 0.000000000000000000 ) ) ;
#220 = SURFACE_STYLE_FILL_AREA ( #117 ) ;
#221 = CARTESIAN_POINT ( 'NONE',  ( -25.39999999999999858, 0.000000000000000000, 15.79999999999998117 ) ) ;
#222 = VECTOR ( 'NONE', #147, 1000.000000000000000 ) ;
#223 = DIRECTION ( 'NONE',  ( 1.000000000000000000, 0.000000000000000000, 0.000000000000000000 ) ) ;
#224 = PRESENTATION_LAYER_ASSIGNMENT (  '', '', ( #204 ) ) ;
#225 = SPHERICAL_SURFACE ( 'NONE', #110, 279.1200000000000614 ) ;
#226 = DIRECTION ( 'NONE',  ( 1.000000000000000000, 0.000000000000000000, 0.000000000000000000 ) ) ;
#227 = AXIS2_PLACEMENT_3D ( 'NONE', #144, #150, #248 ) ;
#228 = DIRECTION ( 'NONE',  ( -1.000000000000000000, 1.224646799147353207E-16, 0.000000000000000000 ) ) ;
#229 = DIRECTION ( 'NONE',  ( -1.000000000000000000, 0.000000000000000000, 0.000000000000000000 ) ) ;
#230 = VECTOR ( 'NONE', #232, 1000.000000000000000 ) ;
#231 = DIRECTION ( 'NONE',  ( 0.000000000000000000, 0.000000000000000000, -1.000000000000000000 ) ) ;
#232 = DIRECTION ( 'NONE',  ( -0.5044927953932116793, 6.178254870711972724E-17, 0.8634159017509134282 ) ) ;
#233 = DIRECTION ( 'NONE',  ( 1.000000000000000000, 0.000000000000000000, 0.000000000000000000 ) ) ;
#234 = LINE ( 'NONE', #98, #23 ) ;
#235 = AXIS2_PLACEMENT_3D ( 'NONE', #66, #299, #226 ) ;
#236 = ORIENTED_EDGE ( 'NONE', *, *, #67, .F. ) ;
#237 = EDGE_CURVE ( 'NONE', #31, #135, #216, .T. ) ;
#238 = EDGE_LOOP ( 'NONE', ( #161, #10, #138, #243 ) ) ;
#239 = DIRECTION ( 'NONE',  ( -0.000000000000000000, -0.000000000000000000, -1.000000000000000000 ) ) ;
#240 = ORIENTED_EDGE ( 'NONE', *, *, #30, .T. ) ;
#241 = ORIENTED_EDGE ( 'NONE', *, *, #130, .F. ) ;
#242 = DIRECTION ( 'NONE',  ( 1.000000000000000000, 0.000000000000000000, 0.000000000000000000 ) ) ;
#243 = ORIENTED_EDGE ( 'NONE', *, *, #203, .T. ) ;
#244 = ORIENTED_EDGE ( 'NONE', *, *, #84, .T. ) ;
#245 = DIRECTION ( 'NONE',  ( 0.000000000000000000, 0.000000000000000000, -1.000000000000000000 ) ) ;
#246 = DIRECTION ( 'NONE',  ( -1.000000000000000000, 0.000000000000000000, 0.000000000000000000 ) ) ;
#247 = CARTESIAN_POINT ( 'NONE',  ( -3.088153848935836496E-15, -25.21668983323133872, 15.98331016676862681 ) ) ;
#248 = DIRECTION ( 'NONE',  ( -1.000000000000000000, 0.000000000000000000, 0.000000000000000000 ) ) ;
#249 = AXIS2_PLACEMENT_3D ( 'NONE', #207, #231, #176 ) ;
#250 = DIRECTION ( 'NONE',  ( -1.000000000000000000, 0.000000000000000000, 0.000000000000000000 ) ) ;
#251 = ADVANCED_FACE ( 'NONE', ( #332 ), #166, .T. ) ;
#252 = DIRECTION ( 'NONE',  ( -1.224646799147353207E-16, -1.000000000000000000, 0.000000000000000000 ) ) ;
#253 = APPLICATION_PROTOCOL_DEFINITION ( 'draft international standard', 'automotive_design', 1998, #42 ) ;
#254 = CARTESIAN_POINT ( 'NONE',  ( 0.000000000000000000, 0.000000000000000000, 109.8031321807306142 ) ) ;
#255 = MECHANICAL_DESIGN_GEOMETRIC_PRESENTATION_REPRESENTATION (  '', ( #204 ), #157 ) ;
#256 = MANIFOLD_SOLID_BREP ( 'µ¹½Ç2', #206 ) ;
#257 = AXIS2_PLACEMENT_3D ( 'NONE', #35, #223, #321 ) ;
#258 = VECTOR ( 'NONE', #260, 1000.000000000000000 ) ;
#259 = ORIENTED_EDGE ( 'NONE', *, *, #282, .T. ) ;
#260 = DIRECTION ( 'NONE',  ( 0.5044927953932116793, 0.000000000000000000, 0.8634159017509134282 ) ) ;
#261 = AXIS2_PLACEMENT_3D ( 'NONE', #102, #279, #278 ) ;
#262 = ORIENTED_EDGE ( 'NONE', *, *, #84, .F. ) ;
#263 = DIRECTION ( 'NONE',  ( -1.000000000000000000, 0.000000000000000000, 0.000000000000000000 ) ) ;
#264 = ORIENTED_EDGE ( 'NONE', *, *, #331, .T. ) ;
#265 = CARTESIAN_POINT ( 'NONE',  ( 25.39999999999999858, 3.110602869834276865E-15, 15.79999999999998117 ) ) ;
#266 = CIRCLE ( 'NONE', #212, 100.0800000000000125 ) ;
#267 = PRODUCT_DEFINITION_SHAPE ( 'NONE', 'NONE',  #105 ) ;
#268 = ORIENTED_EDGE ( 'NONE', *, *, #123, .T. ) ;
#269 = CARTESIAN_POINT ( 'NONE',  ( 0.000000000000000000, 0.000000000000000000, 15.98331016676862681 ) ) ;
#270 = EDGE_LOOP ( 'NONE', ( #108, #163, #155, #213, #308 ) ) ;
#271 = DIRECTION ( 'NONE',  ( -1.000000000000000000, 0.000000000000000000, 0.000000000000000000 ) ) ;
#272 = AXIS2_PLACEMENT_3D ( 'NONE', #171, #250, #301 ) ;
#273 = CARTESIAN_POINT ( 'NONE',  ( 0.000000000000000000, 0.000000000000000000, 12.94948413701273182 ) ) ;
#274 = FACE_OUTER_BOUND ( 'NONE', #292, .T. ) ;
#275 = DIRECTION ( 'NONE',  ( 1.000000000000000000, 0.000000000000000000, 0.000000000000000000 ) ) ;
#276 = COLOUR_RGB ( '',1.000000000000000000, 1.000000000000000000, 1.000000000000000000 ) ;
#277 = DIRECTION ( 'NONE',  ( -1.000000000000000000, 0.000000000000000000, 0.000000000000000000 ) ) ;
#278 = DIRECTION ( 'NONE',  ( -1.000000000000000000, 0.000000000000000000, 0.000000000000000000 ) ) ;
#279 = DIRECTION ( 'NONE',  ( 0.000000000000000000, 0.000000000000000000, -1.000000000000000000 ) ) ;
#280 = EDGE_CURVE ( 'NONE', #26, #31, #100, .T. ) ;
#281 = FILL_AREA_STYLE_COLOUR ( '', #276 ) ;
#282 = EDGE_CURVE ( 'NONE', #112, #26, #88, .T. ) ;
#283 = UNCERTAINTY_MEASURE_WITH_UNIT (LENGTH_MEASURE( 1.000000000000000082E-05 ), #36, 'distance_accuracy_value', 'NONE');
#284 = FACE_OUTER_BOUND ( 'NONE', #65, .T. ) ;
#285 = EDGE_CURVE ( 'NONE', #158, #12, #52, .T. ) ;
#286 = ORIENTED_EDGE ( 'NONE', *, *, #164, .F. ) ;
#287 = CARTESIAN_POINT ( 'NONE',  ( 0.000000000000000000, 25.21668983323133872, 15.98331016676862681 ) ) ;
#288 = ORIENTED_EDGE ( 'NONE', *, *, #64, .T. ) ;
#289 = DIRECTION ( 'NONE',  ( 0.000000000000000000, 1.000000000000000000, 0.000000000000000000 ) ) ;
#290 = AXIS2_PLACEMENT_3D ( 'NONE', #55, #317, #246 ) ;
#291 = CARTESIAN_POINT ( 'NONE',  ( -25.39999999999999858, 3.110602869834276865E-15, 13.28032383718598375 ) ) ;
#292 = EDGE_LOOP ( 'NONE', ( #5, #288, #133, #286, #74 ) ) ;
#293 = DIRECTION ( 'NONE',  ( -0.000000000000000000, -0.000000000000000000, 1.000000000000000000 ) ) ;
#294 = ORIENTED_EDGE ( 'NONE', *, *, #183, .T. ) ;
#295 = CARTESIAN_POINT ( 'NONE',  ( 0.000000000000000000, 1.709117072890046227E-14, 14.84189379121730923 ) ) ;
#296 = AXIS2_PLACEMENT_3D ( 'NONE', #109, #293, #211 ) ;
#297 = ORIENTED_EDGE ( 'NONE', *, *, #123, .F. ) ;
#298 = FACE_OUTER_BOUND ( 'NONE', #210, .T. ) ;
#299 = DIRECTION ( 'NONE',  ( -0.000000000000000000, -0.000000000000000000, 1.000000000000000000 ) ) ;
#300 = CIRCLE ( 'NONE', #44, 25.21668983323140623 ) ;
#301 = DIRECTION ( 'NONE',  ( 0.000000000000000000, 1.000000000000000000, 0.000000000000000000 ) ) ;
#302 = LINE ( 'NONE', #291, #230 ) ;
#303 = EDGE_CURVE ( 'NONE', #50, #3, #146, .T. ) ;
#304 = AXIS2_PLACEMENT_3D ( 'NONE', #14, #97, #271 ) ;
#305 = DIRECTION ( 'NONE',  ( 1.000000000000000000, 0.000000000000000000, 0.000000000000000000 ) ) ;
#306 = ORIENTED_EDGE ( 'NONE', *, *, #72, .F. ) ;
#307 = CARTESIAN_POINT ( 'NONE',  ( 0.000000000000000000, 0.000000000000000000, 15.79999999999998117 ) ) ;
#308 = ORIENTED_EDGE ( 'NONE', *, *, #285, .F. ) ;
#309 = AXIS2_PLACEMENT_3D ( 'NONE', #126, #228, #329 ) ;
#310 = CYLINDRICAL_SURFACE ( 'NONE', #227, 25.39999999999999858 ) ;
#311 = ORIENTED_EDGE ( 'NONE', *, *, #54, .F. ) ;
#312 = LINE ( 'NONE', #141, #328 ) ;
#313 = CONICAL_SURFACE ( 'NONE', #261, 25.21668983323140623, 0.7853981633973063925 ) ;
#314 = VERTEX_POINT ( 'NONE', #194 ) ;
#315 = SURFACE_STYLE_USAGE ( .BOTH. , #61 ) ;
#316 = ORIENTED_EDGE ( 'NONE', *, *, #303, .T. ) ;
#317 = DIRECTION ( 'NONE',  ( -0.000000000000000000, -0.000000000000000000, 1.000000000000000000 ) ) ;
#318 = PRODUCT_RELATED_PRODUCT_CATEGORY ( 'part', '', ( #25 ) ) ;
#319 = CARTESIAN_POINT ( 'NONE',  ( -3.086929319406547016E-15, -25.20669079081240582, 12.94948413701272472 ) ) ;
#320 = ADVANCED_FACE ( 'NONE', ( #196 ), #202, .T. ) ;
#321 = DIRECTION ( 'NONE',  ( 0.000000000000000000, 0.000000000000000000, -1.000000000000000000 ) ) ;
#322 = ADVANCED_BREP_SHAPE_REPRESENTATION ( 'GLM1-050B-300', ( #256, #326 ), #151 ) ;
#323 = EDGE_CURVE ( 'NONE', #31, #158, #302, .T. ) ;
#324 = CARTESIAN_POINT ( 'NONE',  ( 0.000000000000000000, 0.000000000000000000, 293.9618937912173351 ) ) ;
#325 =( NAMED_UNIT ( * ) PLANE_ANGLE_UNIT ( ) SI_UNIT ( $, .RADIAN. ) );
#326 = AXIS2_PLACEMENT_3D ( 'NONE', #178, #127, #275 ) ;
#327 = LINE ( 'NONE', #41, #70 ) ;
#328 = VECTOR ( 'NONE', #209, 1000.000000000000114 ) ;
#329 = DIRECTION ( 'NONE',  ( -1.224646799147352961E-16, -1.000000000000000000, 0.000000000000000000 ) ) ;
#330 = AXIS2_PLACEMENT_3D ( 'NONE', #113, #87, #242 ) ;
#331 = EDGE_CURVE ( 'NONE', #3, #12, #234, .T. ) ;
#332 = FACE_OUTER_BOUND ( 'NONE', #270, .T. ) ;
ENDSEC;
END-ISO-10303-21;
