ISO-10303-21;
HEADER;
FILE_DESCRIPTION (( 'STEP AP214' ),
    '1' );
FILE_NAME ('GLM2-025B-1000.STEP',
    '2024-08-09T02:48:36',
    ( 'Windows User' ),
    ( 'P R C' ),
    'SwSTEP 2.0',
    'SolidWorks 2022',
    '' );
FILE_SCHEMA (( 'AUTOMOTIVE_DESIGN' ));
ENDSEC;

DATA;
#1 = SPHERICAL_SURFACE ( 'NONE', #207, 1425.690000000000055 ) ;
#2 = CARTESIAN_POINT ( 'NONE',  ( 0.000000000000000000, 0.000000000000000000, 5.998247730793826449 ) ) ;
#3 = CARTESIAN_POINT ( 'NONE',  ( 0.000000000000000000, 2.130885430516394102E-14, 3.768184283726605521 ) ) ;
#4 = AXIS2_PLACEMENT_3D ( 'NONE', #309, #23, #133 ) ;
#5 = CARTESIAN_POINT ( 'NONE',  ( 12.69999999999999929, 1.555301434917138433E-15, 4.207718915923863712 ) ) ;
#6 = ORIENTED_EDGE ( 'NONE', *, *, #223, .T. ) ;
#7 = CIRCLE ( 'NONE', #145, 12.50175226920632809 ) ;
#8 = ORIENTED_EDGE ( 'NONE', *, *, #52, .T. ) ;
#9 = EDGE_CURVE ( 'NONE', #166, #318, #81, .T. ) ;
#10 = STYLED_ITEM ( 'NONE', ( #40 ), #188 ) ;
#11 = AXIS2_PLACEMENT_3D ( 'NONE', #303, #78, #299 ) ;
#12 = CIRCLE ( 'NONE', #85, 1425.690000000000055 ) ;
#13 = DIRECTION ( 'NONE',  ( 1.000000000000000000, 0.000000000000000000, 0.000000000000000000 ) ) ;
#14 = CIRCLE ( 'NONE', #58, 12.69999999999999929 ) ;
#15 = CARTESIAN_POINT ( 'NONE',  ( 0.000000000000000000, 8.729833475381951565E-14, 5.943433285008348221 ) ) ;
#16 = ORIENTED_EDGE ( 'NONE', *, *, #97, .F. ) ;
#17 = SURFACE_STYLE_USAGE ( .BOTH. , #227 ) ;
#18 =( LENGTH_UNIT ( ) NAMED_UNIT ( * ) SI_UNIT ( .MILLI., .METRE. ) );
#19 = FACE_OUTER_BOUND ( 'NONE', #296, .T. ) ;
#20 = EDGE_CURVE ( 'NONE', #68, #39, #99, .T. ) ;
#21 = CARTESIAN_POINT ( 'NONE',  ( 0.000000000000000000, 0.000000000000000000, 351.7681842837264981 ) ) ;
#22 = DIRECTION ( 'NONE',  ( -1.000000000000000000, 0.000000000000000000, 0.000000000000000000 ) ) ;
#23 = DIRECTION ( 'NONE',  ( 0.000000000000000000, 0.000000000000000000, -1.000000000000000000 ) ) ;
#24 = DIRECTION ( 'NONE',  ( -1.224646799147353454E-16, -1.000000000000000000, 0.000000000000000000 ) ) ;
#25 = ORIENTED_EDGE ( 'NONE', *, *, #52, .F. ) ;
#26 = CARTESIAN_POINT ( 'NONE',  ( 12.50018853125826723, 0.000000000000000000, 3.992760645593507185 ) ) ;
#27 = VERTEX_POINT ( 'NONE', #15 ) ;
#28 = ORIENTED_EDGE ( 'NONE', *, *, #122, .F. ) ;
#29 = CARTESIAN_POINT ( 'NONE',  ( 0.000000000000000000, 0.000000000000000000, 4.207718915923863712 ) ) ;
#30 = ORIENTED_EDGE ( 'NONE', *, *, #172, .F. ) ;
#31 = PRODUCT_CONTEXT ( 'NONE', #138, 'mechanical' ) ;
#32 = DIRECTION ( 'NONE',  ( 1.000000000000000000, 0.000000000000000000, 0.000000000000000000 ) ) ;
#33 = COLOUR_RGB ( '',1.000000000000000000, 1.000000000000000000, 1.000000000000000000 ) ;
#34 = AXIS2_PLACEMENT_3D ( 'NONE', #56, #59, #111 ) ;
#35 = EDGE_LOOP ( 'NONE', ( #25, #221, #272, #291, #140 ) ) ;
#36 = DIRECTION ( 'NONE',  ( 1.000000000000000000, 0.000000000000000000, 0.000000000000000000 ) ) ;
#37 = EDGE_CURVE ( 'NONE', #318, #321, #142, .T. ) ;
#38 = DIRECTION ( 'NONE',  ( -0.6808304174335974013, 8.337767914722111938E-17, 0.7324410847960356463 ) ) ;
#39 = VERTEX_POINT ( 'NONE', #324 ) ;
#40 = PRESENTATION_STYLE_ASSIGNMENT (( #199 ) ) ;
#41 = DIRECTION ( 'NONE',  ( -0.000000000000000000, -0.000000000000000000, -1.000000000000000000 ) ) ;
#42 = AXIS2_PLACEMENT_3D ( 'NONE', #250, #76, #234 ) ;
#43 = DIRECTION ( 'NONE',  ( -0.000000000000000000, -0.000000000000000000, 1.000000000000000000 ) ) ;
#44 = DIRECTION ( 'NONE',  ( 1.000000000000000000, -0.000000000000000000, 0.000000000000000000 ) ) ;
#45 = CARTESIAN_POINT ( 'NONE',  ( 0.000000000000000000, 0.000000000000000000, 1431.633433285008550 ) ) ;
#46 = CYLINDRICAL_SURFACE ( 'NONE', #61, 12.69999999999999929 ) ;
#47 = CLOSED_SHELL ( 'NONE', ( #189, #327, #252, #128, #248, #157, #119, #163, #257, #131 ) ) ;
#48 = SPHERICAL_SURFACE ( 'NONE', #183, 347.9999999999999432 ) ;
#49 = DIRECTION ( 'NONE',  ( -1.000000000000000000, 0.000000000000000000, 0.000000000000000000 ) ) ;
#50 = ORIENTED_EDGE ( 'NONE', *, *, #9, .F. ) ;
#51 = VECTOR ( 'NONE', #41, 1000.000000000000000 ) ;
#52 = EDGE_CURVE ( 'NONE', #235, #297, #100, .T. ) ;
#53 = CIRCLE ( 'NONE', #34, 12.50018853125826723 ) ;
#54 = ORIENTED_EDGE ( 'NONE', *, *, #122, .T. ) ;
#55 = EDGE_CURVE ( 'NONE', #135, #297, #292, .T. ) ;
#56 = CARTESIAN_POINT ( 'NONE',  ( 0.000000000000000000, 0.000000000000000000, 3.992760645593507185 ) ) ;
#57 = ORIENTED_EDGE ( 'NONE', *, *, #147, .F. ) ;
#58 = AXIS2_PLACEMENT_3D ( 'NONE', #159, #130, #134 ) ;
#59 = DIRECTION ( 'NONE',  ( 0.000000000000000000, 0.000000000000000000, -1.000000000000000000 ) ) ;
#60 = ORIENTED_EDGE ( 'NONE', *, *, #20, .T. ) ;
#61 = AXIS2_PLACEMENT_3D ( 'NONE', #105, #132, #22 ) ;
#62 = ORIENTED_EDGE ( 'NONE', *, *, #223, .F. ) ;
#63 = EDGE_CURVE ( 'NONE', #297, #270, #251, .T. ) ;
#64 = PRESENTATION_LAYER_ASSIGNMENT (  '', '', ( #102 ) ) ;
#65 = ORIENTED_EDGE ( 'NONE', *, *, #55, .F. ) ;
#66 = EDGE_CURVE ( 'NONE', #39, #244, #7, .T. ) ;
#67 = DIRECTION ( 'NONE',  ( -0.000000000000000000, -0.000000000000000000, 1.000000000000000000 ) ) ;
#68 = VERTEX_POINT ( 'NONE', #75 ) ;
#69 = PRODUCT_DEFINITION_FORMATION_WITH_SPECIFIED_SOURCE ( 'ÈÎºÎ', '', #179, .NOT_KNOWN. ) ;
#70 = APPLICATION_CONTEXT ( 'automotive_design' ) ;
#71 = MANIFOLD_SOLID_BREP ( 'µ¹½Ç1', #47 ) ;
#72 =( LENGTH_UNIT ( ) NAMED_UNIT ( * ) SI_UNIT ( .MILLI., .METRE. ) );
#73 = AXIS2_PLACEMENT_3D ( 'NONE', #29, #219, #220 ) ;
#74 = SURFACE_STYLE_FILL_AREA ( #275 ) ;
#75 = CARTESIAN_POINT ( 'NONE',  ( 0.000000000000000000, 12.50175226918713633, 5.998247730793604404 ) ) ;
#76 = DIRECTION ( 'NONE',  ( 0.000000000000000000, 0.000000000000000000, -1.000000000000000000 ) ) ;
#77 = AXIS2_PLACEMENT_3D ( 'NONE', #2, #282, #49 ) ;
#78 = DIRECTION ( 'NONE',  ( -1.000000000000000000, 1.224646799147353207E-16, 0.000000000000000000 ) ) ;
#79 = FACE_OUTER_BOUND ( 'NONE', #313, .T. ) ;
#80 = CARTESIAN_POINT ( 'NONE',  ( 0.000000000000000000, 0.000000000000000000, 351.7681842837264981 ) ) ;
#81 = CIRCLE ( 'NONE', #116, 12.50018853125826723 ) ;
#82 = CARTESIAN_POINT ( 'NONE',  ( -12.50018853125826723, 1.543066511135763359E-15, 3.992760645593507185 ) ) ;
#83 = ORIENTED_EDGE ( 'NONE', *, *, #268, .T. ) ;
#84 = CIRCLE ( 'NONE', #197, 12.50175226920632809 ) ;
#85 = AXIS2_PLACEMENT_3D ( 'NONE', #213, #190, #312 ) ;
#86 = EDGE_CURVE ( 'NONE', #259, #68, #84, .T. ) ;
#87 = FACE_OUTER_BOUND ( 'NONE', #196, .T. ) ;
#88 = ORIENTED_EDGE ( 'NONE', *, *, #37, .T. ) ;
#89 = DIRECTION ( 'NONE',  ( 1.000000000000000000, 0.000000000000000000, 0.000000000000000000 ) ) ;
#90 = ORIENTED_EDGE ( 'NONE', *, *, #218, .F. ) ;
#91 = CARTESIAN_POINT ( 'NONE',  ( 0.000000000000000000, 0.000000000000000000, 0.000000000000000000 ) ) ;
#92 = DIRECTION ( 'NONE',  ( -0.000000000000000000, -0.000000000000000000, 1.000000000000000000 ) ) ;
#93 = ORIENTED_EDGE ( 'NONE', *, *, #172, .T. ) ;
#94 = DIRECTION ( 'NONE',  ( 1.000000000000000000, 0.000000000000000000, 0.000000000000000000 ) ) ;
#95 = APPLICATION_PROTOCOL_DEFINITION ( 'draft international standard', 'automotive_design', 1998, #70 ) ;
#96 = CIRCLE ( 'NONE', #277, 1425.690000000000055 ) ;
#97 = EDGE_CURVE ( 'NONE', #240, #321, #127, .T. ) ;
#98 = CARTESIAN_POINT ( 'NONE',  ( -12.69999999999999929, 0.000000000000000000, 10.00000000000000000 ) ) ;
#99 = CIRCLE ( 'NONE', #281, 12.50175226920632809 ) ;
#100 = LINE ( 'NONE', #169, #155 ) ;
#101 = PRODUCT_DEFINITION_CONTEXT ( 'detailed design', #70, 'design' ) ;
#102 = STYLED_ITEM ( 'NONE', ( #230 ), #71 ) ;
#103 = AXIS2_PLACEMENT_3D ( 'NONE', #276, #186, #141 ) ;
#104 = DIRECTION ( 'NONE',  ( 0.6808304174335974013, 0.000000000000000000, 0.7324410847960356463 ) ) ;
#105 = CARTESIAN_POINT ( 'NONE',  ( 0.000000000000000000, 0.000000000000000000, 10.00000000000000000 ) ) ;
#106 = EDGE_CURVE ( 'NONE', #318, #270, #274, .T. ) ;
#107 = DIRECTION ( 'NONE',  ( 0.000000000000000000, 0.000000000000000000, -1.000000000000000000 ) ) ;
#108 = LINE ( 'NONE', #210, #195 ) ;
#109 = CONICAL_SURFACE ( 'NONE', #293, 12.50175226920625349, 0.7853981633984327138 ) ;
#110 = SPHERICAL_SURFACE ( 'NONE', #146, 1425.690000000000055 ) ;
#111 = DIRECTION ( 'NONE',  ( 1.000000000000000000, 0.000000000000000000, 0.000000000000000000 ) ) ;
#112 = ORIENTED_EDGE ( 'NONE', *, *, #20, .F. ) ;
#113 =( GEOMETRIC_REPRESENTATION_CONTEXT ( 3 ) GLOBAL_UNCERTAINTY_ASSIGNED_CONTEXT ( ( #154 ) ) GLOBAL_UNIT_ASSIGNED_CONTEXT ( ( #72, #173, #301 ) ) REPRESENTATION_CONTEXT ( 'NONE', 'WORKASPACE' ) );
#114 = CARTESIAN_POINT ( 'NONE',  ( 0.000000000000000000, 0.000000000000000000, 5.998247730793604404 ) ) ;
#115 = ORIENTED_EDGE ( 'NONE', *, *, #204, .F. ) ;
#116 = AXIS2_PLACEMENT_3D ( 'NONE', #124, #222, #148 ) ;
#117 = DIRECTION ( 'NONE',  ( 0.000000000000000000, 1.000000000000000000, 0.000000000000000000 ) ) ;
#118 = VERTEX_POINT ( 'NONE', #125 ) ;
#119 = ADVANCED_FACE ( 'NONE', ( #150 ), #280, .T. ) ;
#120 = ORIENTED_EDGE ( 'NONE', *, *, #147, .T. ) ;
#121 = CARTESIAN_POINT ( 'NONE',  ( 0.000000000000000000, 0.000000000000000000, 5.998247730793604404 ) ) ;
#122 = EDGE_CURVE ( 'NONE', #118, #270, #283, .T. ) ;
#123 = ORIENTED_EDGE ( 'NONE', *, *, #306, .T. ) ;
#124 = CARTESIAN_POINT ( 'NONE',  ( 0.000000000000000000, 0.000000000000000000, 3.992760645593507185 ) ) ;
#125 = CARTESIAN_POINT ( 'NONE',  ( 12.69999999999999929, 1.555301434917138433E-15, 5.800000000000471445 ) ) ;
#126 = FILL_AREA_STYLE ('',( #226 ) ) ;
#127 = CIRCLE ( 'NONE', #11, 347.9999999999999432 ) ;
#128 = ADVANCED_FACE ( 'NONE', ( #19 ), #48, .T. ) ;
#129 = CARTESIAN_POINT ( 'NONE',  ( 0.000000000000000000, 12.50018853125930818, 3.992760645593507185 ) ) ;
#130 = DIRECTION ( 'NONE',  ( 0.000000000000000000, 0.000000000000000000, -1.000000000000000000 ) ) ;
#131 = ADVANCED_FACE ( 'NONE', ( #307 ), #236, .T. ) ;
#132 = DIRECTION ( 'NONE',  ( -0.000000000000000000, -0.000000000000000000, -1.000000000000000000 ) ) ;
#133 = DIRECTION ( 'NONE',  ( 1.000000000000000000, 0.000000000000000000, 0.000000000000000000 ) ) ;
#134 = DIRECTION ( 'NONE',  ( 1.000000000000000000, 0.000000000000000000, 0.000000000000000000 ) ) ;
#135 = VERTEX_POINT ( 'NONE', #253 ) ;
#136 = VECTOR ( 'NONE', #256, 999.9999999999998863 ) ;
#137 = CARTESIAN_POINT ( 'NONE',  ( -1.530831587354516673E-15, -12.50018853125930818, 3.992760645593507185 ) ) ;
#138 = APPLICATION_CONTEXT ( 'automotive_design' ) ;
#139 = CARTESIAN_POINT ( 'NONE',  ( 12.50175226920632809, 1.543162262469403636E-15, 5.998247730793604404 ) ) ;
#140 = ORIENTED_EDGE ( 'NONE', *, *, #63, .F. ) ;
#141 = DIRECTION ( 'NONE',  ( -1.000000000000000000, 0.000000000000000000, 0.000000000000000000 ) ) ;
#142 = CIRCLE ( 'NONE', #177, 12.50018853125826723 ) ;
#143 =( GEOMETRIC_REPRESENTATION_CONTEXT ( 3 ) GLOBAL_UNCERTAINTY_ASSIGNED_CONTEXT ( ( #326 ) ) GLOBAL_UNIT_ASSIGNED_CONTEXT ( ( #18, #271, #273 ) ) REPRESENTATION_CONTEXT ( 'NONE', 'WORKASPACE' ) );
#144 = CARTESIAN_POINT ( 'NONE',  ( 0.000000000000000000, 0.000000000000000000, 3.992760645593507185 ) ) ;
#145 = AXIS2_PLACEMENT_3D ( 'NONE', #170, #149, #94 ) ;
#146 = AXIS2_PLACEMENT_3D ( 'NONE', #315, #287, #117 ) ;
#147 = EDGE_CURVE ( 'NONE', #240, #166, #164, .T. ) ;
#148 = DIRECTION ( 'NONE',  ( 1.000000000000000000, 0.000000000000000000, 0.000000000000000000 ) ) ;
#149 = DIRECTION ( 'NONE',  ( -0.000000000000000000, -0.000000000000000000, 1.000000000000000000 ) ) ;
#150 = FACE_OUTER_BOUND ( 'NONE', #211, .T. ) ;
#151 = CIRCLE ( 'NONE', #4, 12.50018853125826723 ) ;
#152 = CARTESIAN_POINT ( 'NONE',  ( 12.69999999999999929, 0.000000000000000000, 4.207718915923863712 ) ) ;
#153 = DIRECTION ( 'NONE',  ( 0.000000000000000000, 1.000000000000000000, 0.000000000000000000 ) ) ;
#154 = UNCERTAINTY_MEASURE_WITH_UNIT (LENGTH_MEASURE( 1.000000000000000082E-05 ), #72, 'distance_accuracy_value', 'NONE');
#155 = VECTOR ( 'NONE', #38, 1000.000000000000000 ) ;
#156 = DIRECTION ( 'NONE',  ( -1.000000000000000000, 0.000000000000000000, 0.000000000000000000 ) ) ;
#157 = ADVANCED_FACE ( 'NONE', ( #176 ), #46, .T. ) ;
#158 = CARTESIAN_POINT ( 'NONE',  ( 0.000000000000000000, 0.000000000000000000, 351.7681842837264981 ) ) ;
#159 = CARTESIAN_POINT ( 'NONE',  ( 0.000000000000000000, 0.000000000000000000, 5.800000000000471445 ) ) ;
#160 = CARTESIAN_POINT ( 'NONE',  ( 12.50175226920625349, 1.531023090021659767E-15, 5.998247730793826449 ) ) ;
#161 = CONICAL_SURFACE ( 'NONE', #267, 12.69999999999999929, 0.7488958049719834920 ) ;
#162 = ORIENTED_EDGE ( 'NONE', *, *, #66, .F. ) ;
#163 = ADVANCED_FACE ( 'NONE', ( #79 ), #1, .F. ) ;
#164 = CIRCLE ( 'NONE', #260, 347.9999999999999432 ) ;
#165 =( LENGTH_UNIT ( ) NAMED_UNIT ( * ) SI_UNIT ( .MILLI., .METRE. ) );
#166 = VERTEX_POINT ( 'NONE', #129 ) ;
#167 = EDGE_LOOP ( 'NONE', ( #311, #294, #262, #90, #112 ) ) ;
#168 = CIRCLE ( 'NONE', #328, 12.69999999999999929 ) ;
#169 = CARTESIAN_POINT ( 'NONE',  ( -12.69999999999999929, 1.555301434917138038E-15, 4.207718915923863712 ) ) ;
#170 = CARTESIAN_POINT ( 'NONE',  ( 0.000000000000000000, 0.000000000000000000, 5.998247730793604404 ) ) ;
#171 = CARTESIAN_POINT ( 'NONE',  ( 0.000000000000000000, 0.000000000000000000, 5.998247730793604404 ) ) ;
#172 = EDGE_CURVE ( 'NONE', #118, #135, #14, .T. ) ;
#173 =( NAMED_UNIT ( * ) PLANE_ANGLE_UNIT ( ) SI_UNIT ( $, .RADIAN. ) );
#174 = CYLINDRICAL_SURFACE ( 'NONE', #103, 12.69999999999999929 ) ;
#175 = EDGE_CURVE ( 'NONE', #135, #118, #323, .T. ) ;
#176 = FACE_OUTER_BOUND ( 'NONE', #286, .T. ) ;
#177 = AXIS2_PLACEMENT_3D ( 'NONE', #144, #224, #13 ) ;
#178 = DIRECTION ( 'NONE',  ( 0.000000000000000000, 1.000000000000000000, 0.000000000000000000 ) ) ;
#179 = PRODUCT ( 'GLM2-025B-1000', 'GLM2-025B-1000', '', ( #31 ) ) ;
#180 = LINE ( 'NONE', #160, #136 ) ;
#181 = ORIENTED_EDGE ( 'NONE', *, *, #278, .T. ) ;
#182 = AXIS2_PLACEMENT_3D ( 'NONE', #91, #322, #36 ) ;
#183 = AXIS2_PLACEMENT_3D ( 'NONE', #21, #279, #208 ) ;
#184 = AXIS2_PLACEMENT_3D ( 'NONE', #114, #319, #216 ) ;
#185 = EDGE_LOOP ( 'NONE', ( #187, #6, #181, #284 ) ) ;
#186 = DIRECTION ( 'NONE',  ( -0.000000000000000000, -0.000000000000000000, -1.000000000000000000 ) ) ;
#187 = ORIENTED_EDGE ( 'NONE', *, *, #268, .F. ) ;
#188 = ADVANCED_BREP_SHAPE_REPRESENTATION ( 'GLM2-025B-1000', ( #71, #182 ), #255 ) ;
#189 = ADVANCED_FACE ( 'NONE', ( #232 ), #109, .T. ) ;
#190 = DIRECTION ( 'NONE',  ( 1.000000000000000000, 0.000000000000000000, 0.000000000000000000 ) ) ;
#191 = EDGE_LOOP ( 'NONE', ( #290, #54, #123, #65 ) ) ;
#192 = SHAPE_DEFINITION_REPRESENTATION ( #308, #188 ) ;
#193 = FACE_OUTER_BOUND ( 'NONE', #185, .T. ) ;
#194 = EDGE_LOOP ( 'NONE', ( #265, #217, #162, #269, #30 ) ) ;
#195 = VECTOR ( 'NONE', #206, 999.9999999999998863 ) ;
#196 = EDGE_LOOP ( 'NONE', ( #115, #8, #247, #263, #50 ) ) ;
#197 = AXIS2_PLACEMENT_3D ( 'NONE', #171, #43, #329 ) ;
#198 = CARTESIAN_POINT ( 'NONE',  ( 0.000000000000000000, 0.000000000000000000, 4.207718915923863712 ) ) ;
#199 = SURFACE_STYLE_USAGE ( .BOTH. , #203 ) ;
#200 = DIRECTION ( 'NONE',  ( -1.000000000000000000, 0.000000000000000000, 0.000000000000000000 ) ) ;
#201 = CIRCLE ( 'NONE', #184, 12.50175226920632809 ) ;
#202 = CARTESIAN_POINT ( 'NONE',  ( -1.531023090019318822E-15, -12.50175226918713633, 5.998247730793604404 ) ) ;
#203 = SURFACE_SIDE_STYLE ('',( #74 ) ) ;
#204 = EDGE_CURVE ( 'NONE', #235, #166, #151, .T. ) ;
#205 = SURFACE_STYLE_FILL_AREA ( #126 ) ;
#206 = DIRECTION ( 'NONE',  ( -0.7071067811872435716, 0.000000000000000000, -0.7071067811858515739 ) ) ;
#207 = AXIS2_PLACEMENT_3D ( 'NONE', #45, #156, #153 ) ;
#208 = DIRECTION ( 'NONE',  ( 0.000000000000000000, 1.000000000000000000, 0.000000000000000000 ) ) ;
#209 = CARTESIAN_POINT ( 'NONE',  ( 12.69999999999999929, 1.555301434917138433E-15, 10.00000000000000000 ) ) ;
#210 = CARTESIAN_POINT ( 'NONE',  ( -12.50175226920625349, 0.000000000000000000, 5.998247730793826449 ) ) ;
#211 = EDGE_LOOP ( 'NONE', ( #16, #120, #249, #88 ) ) ;
#212 = PRODUCT_RELATED_PRODUCT_CATEGORY ( 'part', '', ( #179 ) ) ;
#213 = CARTESIAN_POINT ( 'NONE',  ( 0.000000000000000000, 0.000000000000000000, 1431.633433285008550 ) ) ;
#214 = ORIENTED_EDGE ( 'NONE', *, *, #66, .T. ) ;
#215 = AXIS2_PLACEMENT_3D ( 'NONE', #198, #67, #200 ) ;
#216 = DIRECTION ( 'NONE',  ( 1.000000000000000000, 0.000000000000000000, 0.000000000000000000 ) ) ;
#217 = ORIENTED_EDGE ( 'NONE', *, *, #278, .F. ) ;
#218 = EDGE_CURVE ( 'NONE', #39, #135, #108, .T. ) ;
#219 = DIRECTION ( 'NONE',  ( -0.000000000000000000, -0.000000000000000000, 1.000000000000000000 ) ) ;
#220 = DIRECTION ( 'NONE',  ( 1.000000000000000000, 0.000000000000000000, 0.000000000000000000 ) ) ;
#221 = ORIENTED_EDGE ( 'NONE', *, *, #331, .F. ) ;
#222 = DIRECTION ( 'NONE',  ( 0.000000000000000000, 0.000000000000000000, -1.000000000000000000 ) ) ;
#223 = EDGE_CURVE ( 'NONE', #27, #244, #96, .T. ) ;
#224 = DIRECTION ( 'NONE',  ( 0.000000000000000000, 0.000000000000000000, -1.000000000000000000 ) ) ;
#225 = DIRECTION ( 'NONE',  ( -0.000000000000000000, -0.000000000000000000, 1.000000000000000000 ) ) ;
#226 = FILL_AREA_STYLE_COLOUR ( '', #33 ) ;
#227 = SURFACE_SIDE_STYLE ('',( #205 ) ) ;
#228 = MECHANICAL_DESIGN_GEOMETRIC_PRESENTATION_REPRESENTATION (  '', ( #102 ), #113 ) ;
#229 = CONICAL_SURFACE ( 'NONE', #73, 12.69999999999999929, 0.7488958049719834920 ) ;
#230 = PRESENTATION_STYLE_ASSIGNMENT (( #17 ) ) ;
#231 = DIRECTION ( 'NONE',  ( 0.000000000000000000, 0.000000000000000000, -1.000000000000000000 ) ) ;
#232 = FACE_OUTER_BOUND ( 'NONE', #167, .T. ) ;
#233 = DIRECTION ( 'NONE',  ( -0.000000000000000000, -0.000000000000000000, -1.000000000000000000 ) ) ;
#234 = DIRECTION ( 'NONE',  ( 1.000000000000000000, 0.000000000000000000, 0.000000000000000000 ) ) ;
#235 = VERTEX_POINT ( 'NONE', #82 ) ;
#236 = CONICAL_SURFACE ( 'NONE', #77, 12.50175226920625349, 0.7853981633984327138 ) ;
#237 = CARTESIAN_POINT ( 'NONE',  ( -12.69999999999999929, 0.000000000000000000, 4.207718915923863712 ) ) ;
#238 = EDGE_CURVE ( 'NONE', #259, #118, #180, .T. ) ;
#239 = CARTESIAN_POINT ( 'NONE',  ( 0.000000000000000000, 0.000000000000000000, 4.207718915923863712 ) ) ;
#240 = VERTEX_POINT ( 'NONE', #3 ) ;
#241 = ORIENTED_EDGE ( 'NONE', *, *, #63, .T. ) ;
#242 = PRESENTATION_LAYER_ASSIGNMENT (  '', '', ( #10 ) ) ;
#243 = AXIS2_PLACEMENT_3D ( 'NONE', #80, #332, #178 ) ;
#244 = VERTEX_POINT ( 'NONE', #202 ) ;
#245 = ORIENTED_EDGE ( 'NONE', *, *, #97, .T. ) ;
#246 = APPLICATION_PROTOCOL_DEFINITION ( 'draft international standard', 'automotive_design', 1998, #138 ) ;
#247 = ORIENTED_EDGE ( 'NONE', *, *, #306, .F. ) ;
#248 = ADVANCED_FACE ( 'NONE', ( #302 ), #174, .T. ) ;
#249 = ORIENTED_EDGE ( 'NONE', *, *, #9, .T. ) ;
#250 = CARTESIAN_POINT ( 'NONE',  ( 0.000000000000000000, 0.000000000000000000, 5.800000000000471445 ) ) ;
#251 = CIRCLE ( 'NONE', #215, 12.69999999999999929 ) ;
#252 = ADVANCED_FACE ( 'NONE', ( #193 ), #110, .F. ) ;
#253 = CARTESIAN_POINT ( 'NONE',  ( -12.69999999999999929, 0.000000000000000000, 5.800000000000471445 ) ) ;
#254 = CARTESIAN_POINT ( 'NONE',  ( 0.000000000000000000, 0.000000000000000000, 5.998247730793826449 ) ) ;
#255 =( GEOMETRIC_REPRESENTATION_CONTEXT ( 3 ) GLOBAL_UNCERTAINTY_ASSIGNED_CONTEXT ( ( #305 ) ) GLOBAL_UNIT_ASSIGNED_CONTEXT ( ( #165, #261, #285 ) ) REPRESENTATION_CONTEXT ( 'NONE', 'WORKASPACE' ) );
#256 = DIRECTION ( 'NONE',  ( 0.7071067811872435716, 8.659560562363457486E-17, -0.7071067811858515739 ) ) ;
#257 = ADVANCED_FACE ( 'NONE', ( #258 ), #229, .T. ) ;
#258 = FACE_OUTER_BOUND ( 'NONE', #35, .T. ) ;
#259 = VERTEX_POINT ( 'NONE', #139 ) ;
#260 = AXIS2_PLACEMENT_3D ( 'NONE', #158, #44, #231 ) ;
#261 =( NAMED_UNIT ( * ) PLANE_ANGLE_UNIT ( ) SI_UNIT ( $, .RADIAN. ) );
#262 = ORIENTED_EDGE ( 'NONE', *, *, #175, .F. ) ;
#263 = ORIENTED_EDGE ( 'NONE', *, *, #106, .F. ) ;
#264 = DIRECTION ( 'NONE',  ( -0.000000000000000000, -0.000000000000000000, 1.000000000000000000 ) ) ;
#265 = ORIENTED_EDGE ( 'NONE', *, *, #238, .F. ) ;
#266 = PRODUCT_DEFINITION ( 'Î´Öª', '', #69, #101 ) ;
#267 = AXIS2_PLACEMENT_3D ( 'NONE', #239, #264, #89 ) ;
#268 = EDGE_CURVE ( 'NONE', #27, #68, #12, .T. ) ;
#269 = ORIENTED_EDGE ( 'NONE', *, *, #218, .T. ) ;
#270 = VERTEX_POINT ( 'NONE', #5 ) ;
#271 =( NAMED_UNIT ( * ) PLANE_ANGLE_UNIT ( ) SI_UNIT ( $, .RADIAN. ) );
#272 = ORIENTED_EDGE ( 'NONE', *, *, #37, .F. ) ;
#273 =( NAMED_UNIT ( * ) SI_UNIT ( $, .STERADIAN. ) SOLID_ANGLE_UNIT ( ) );
#274 = LINE ( 'NONE', #152, #295 ) ;
#275 = FILL_AREA_STYLE ('',( #298 ) ) ;
#276 = CARTESIAN_POINT ( 'NONE',  ( 0.000000000000000000, 0.000000000000000000, 10.00000000000000000 ) ) ;
#277 = AXIS2_PLACEMENT_3D ( 'NONE', #304, #310, #24 ) ;
#278 = EDGE_CURVE ( 'NONE', #244, #259, #201, .T. ) ;
#279 = DIRECTION ( 'NONE',  ( -1.000000000000000000, 0.000000000000000000, 0.000000000000000000 ) ) ;
#280 = SPHERICAL_SURFACE ( 'NONE', #243, 347.9999999999999432 ) ;
#281 = AXIS2_PLACEMENT_3D ( 'NONE', #121, #225, #32 ) ;
#282 = DIRECTION ( 'NONE',  ( 0.000000000000000000, 0.000000000000000000, -1.000000000000000000 ) ) ;
#283 = LINE ( 'NONE', #209, #314 ) ;
#284 = ORIENTED_EDGE ( 'NONE', *, *, #86, .T. ) ;
#285 =( NAMED_UNIT ( * ) SI_UNIT ( $, .STERADIAN. ) SOLID_ANGLE_UNIT ( ) );
#286 = EDGE_LOOP ( 'NONE', ( #28, #93, #288, #241 ) ) ;
#287 = DIRECTION ( 'NONE',  ( -1.000000000000000000, 0.000000000000000000, 0.000000000000000000 ) ) ;
#288 = ORIENTED_EDGE ( 'NONE', *, *, #55, .T. ) ;
#289 = CARTESIAN_POINT ( 'NONE',  ( 0.000000000000000000, 0.000000000000000000, 4.207718915923863712 ) ) ;
#290 = ORIENTED_EDGE ( 'NONE', *, *, #175, .T. ) ;
#291 = ORIENTED_EDGE ( 'NONE', *, *, #106, .T. ) ;
#292 = LINE ( 'NONE', #98, #51 ) ;
#293 = AXIS2_PLACEMENT_3D ( 'NONE', #254, #107, #330 ) ;
#294 = ORIENTED_EDGE ( 'NONE', *, *, #238, .T. ) ;
#295 = VECTOR ( 'NONE', #104, 1000.000000000000000 ) ;
#296 = EDGE_LOOP ( 'NONE', ( #57, #245, #316, #325 ) ) ;
#297 = VERTEX_POINT ( 'NONE', #237 ) ;
#298 = FILL_AREA_STYLE_COLOUR ( '', #300 ) ;
#299 = DIRECTION ( 'NONE',  ( -1.224646799147353207E-16, -1.000000000000000000, 0.000000000000000000 ) ) ;
#300 = COLOUR_RGB ( '',1.000000000000000000, 1.000000000000000000, 1.000000000000000000 ) ;
#301 =( NAMED_UNIT ( * ) SI_UNIT ( $, .STERADIAN. ) SOLID_ANGLE_UNIT ( ) );
#302 = FACE_OUTER_BOUND ( 'NONE', #191, .T. ) ;
#303 = CARTESIAN_POINT ( 'NONE',  ( 0.000000000000000000, 0.000000000000000000, 351.7681842837264981 ) ) ;
#304 = CARTESIAN_POINT ( 'NONE',  ( 0.000000000000000000, 0.000000000000000000, 1431.633433285008550 ) ) ;
#305 = UNCERTAINTY_MEASURE_WITH_UNIT (LENGTH_MEASURE( 1.000000000000000082E-05 ), #165, 'distance_accuracy_value', 'NONE');
#306 = EDGE_CURVE ( 'NONE', #270, #297, #168, .T. ) ;
#307 = FACE_OUTER_BOUND ( 'NONE', #194, .T. ) ;
#308 = PRODUCT_DEFINITION_SHAPE ( 'NONE', 'NONE',  #266 ) ;
#309 = CARTESIAN_POINT ( 'NONE',  ( 0.000000000000000000, 0.000000000000000000, 3.992760645593507185 ) ) ;
#310 = DIRECTION ( 'NONE',  ( -1.000000000000000000, 1.224646799147353207E-16, 0.000000000000000000 ) ) ;
#311 = ORIENTED_EDGE ( 'NONE', *, *, #86, .F. ) ;
#312 = DIRECTION ( 'NONE',  ( 0.000000000000000000, 0.000000000000000000, -1.000000000000000000 ) ) ;
#313 = EDGE_LOOP ( 'NONE', ( #62, #83, #60, #214 ) ) ;
#314 = VECTOR ( 'NONE', #233, 1000.000000000000000 ) ;
#315 = CARTESIAN_POINT ( 'NONE',  ( 0.000000000000000000, 0.000000000000000000, 1431.633433285008550 ) ) ;
#316 = ORIENTED_EDGE ( 'NONE', *, *, #331, .T. ) ;
#317 = DIRECTION ( 'NONE',  ( -1.000000000000000000, 0.000000000000000000, 0.000000000000000000 ) ) ;
#318 = VERTEX_POINT ( 'NONE', #26 ) ;
#319 = DIRECTION ( 'NONE',  ( -0.000000000000000000, -0.000000000000000000, 1.000000000000000000 ) ) ;
#320 = MECHANICAL_DESIGN_GEOMETRIC_PRESENTATION_REPRESENTATION (  '', ( #10 ), #143 ) ;
#321 = VERTEX_POINT ( 'NONE', #137 ) ;
#322 = DIRECTION ( 'NONE',  ( 0.000000000000000000, 0.000000000000000000, 1.000000000000000000 ) ) ;
#323 = CIRCLE ( 'NONE', #42, 12.69999999999999929 ) ;
#324 = CARTESIAN_POINT ( 'NONE',  ( -12.50175226920632809, 0.000000000000000000, 5.998247730793604404 ) ) ;
#325 = ORIENTED_EDGE ( 'NONE', *, *, #204, .T. ) ;
#326 = UNCERTAINTY_MEASURE_WITH_UNIT (LENGTH_MEASURE( 1.000000000000000082E-05 ), #18, 'distance_accuracy_value', 'NONE');
#327 = ADVANCED_FACE ( 'NONE', ( #87 ), #161, .T. ) ;
#328 = AXIS2_PLACEMENT_3D ( 'NONE', #289, #92, #317 ) ;
#329 = DIRECTION ( 'NONE',  ( 1.000000000000000000, 0.000000000000000000, 0.000000000000000000 ) ) ;
#330 = DIRECTION ( 'NONE',  ( -1.000000000000000000, 0.000000000000000000, 0.000000000000000000 ) ) ;
#331 = EDGE_CURVE ( 'NONE', #321, #235, #53, .T. ) ;
#332 = DIRECTION ( 'NONE',  ( -1.000000000000000000, 0.000000000000000000, 0.000000000000000000 ) ) ;
ENDSEC;
END-ISO-10303-21;
