ISO-10303-21;
HEADER;
FILE_DESCRIPTION (( 'STEP AP214' ),
    '1' );
FILE_NAME ('GLM2-025B-200-UV.STEP',
    '2024-08-09T02:44:55',
    ( 'Windows User' ),
    ( 'P R C' ),
    'SwSTEP 2.0',
    'SolidWorks 2022',
    '' );
FILE_SCHEMA (( 'AUTOMOTIVE_DESIGN' ));
ENDSEC;

DATA;
#1 = ORIENTED_EDGE ( 'NONE', *, *, #176, .T. ) ;
#2 = CARTESIAN_POINT ( 'NONE',  ( 0.000000000000000000, 12.51135459251053916, 5.988645407489848083 ) ) ;
#3 = ORIENTED_EDGE ( 'NONE', *, *, #208, .T. ) ;
#4 = DIRECTION ( 'NONE',  ( -1.000000000000000000, 1.224646799147353207E-16, 0.000000000000000000 ) ) ;
#5 = CIRCLE ( 'NONE', #138, 12.69999999999999929 ) ;
#6 = DIRECTION ( 'NONE',  ( 1.000000000000000000, 0.000000000000000000, 0.000000000000000000 ) ) ;
#7 = CARTESIAN_POINT ( 'NONE',  ( 0.000000000000000000, 0.000000000000000000, 215.4252756951748609 ) ) ;
#8 = EDGE_CURVE ( 'NONE', #73, #236, #201, .T. ) ;
#9 = AXIS2_PLACEMENT_3D ( 'NONE', #159, #82, #6 ) ;
#10 = FILL_AREA_STYLE ('',( #273 ) ) ;
#11 = MECHANICAL_DESIGN_GEOMETRIC_PRESENTATION_REPRESENTATION (  '', ( #267 ), #173 ) ;
#12 = DIRECTION ( 'NONE',  ( 0.000000000000000000, 0.000000000000000000, 1.000000000000000000 ) ) ;
#13 = AXIS2_PLACEMENT_3D ( 'NONE', #185, #79, #160 ) ;
#14 = EDGE_CURVE ( 'NONE', #221, #151, #282, .T. ) ;
#15 = DIRECTION ( 'NONE',  ( -1.000000000000000000, 0.000000000000000000, 0.000000000000000000 ) ) ;
#16 =( GEOMETRIC_REPRESENTATION_CONTEXT ( 3 ) GLOBAL_UNCERTAINTY_ASSIGNED_CONTEXT ( ( #274 ) ) GLOBAL_UNIT_ASSIGNED_CONTEXT ( ( #166, #33, #189 ) ) REPRESENTATION_CONTEXT ( 'NONE', 'WORKASPACE' ) );
#17 = CYLINDRICAL_SURFACE ( 'NONE', #231, 12.69999999999999929 ) ;
#18 = ADVANCED_FACE ( 'NONE', ( #88 ), #239, .T. ) ;
#19 = ORIENTED_EDGE ( 'NONE', *, *, #56, .F. ) ;
#20 = CARTESIAN_POINT ( 'NONE',  ( 0.000000000000000000, 0.000000000000000000, 10.00000000000000000 ) ) ;
#21 = ORIENTED_EDGE ( 'NONE', *, *, #139, .T. ) ;
#22 = CARTESIAN_POINT ( 'NONE',  ( -12.69999999999999929, 0.000000000000000000, 10.00000000000000000 ) ) ;
#23 = VERTEX_POINT ( 'NONE', #257 ) ;
#24 = DIRECTION ( 'NONE',  ( -0.000000000000000000, -0.000000000000000000, 1.000000000000000000 ) ) ;
#25 = ORIENTED_EDGE ( 'NONE', *, *, #183, .T. ) ;
#26 = CARTESIAN_POINT ( 'NONE',  ( 0.000000000000000000, 0.000000000000000000, 5.988645407489862293 ) ) ;
#27 = PRESENTATION_LAYER_ASSIGNMENT (  '', '', ( #267 ) ) ;
#28 = CARTESIAN_POINT ( 'NONE',  ( -1.555301434917139616E-15, -12.70000000000000995, 4.000000000000001776 ) ) ;
#29 = AXIS2_PLACEMENT_3D ( 'NONE', #213, #12, #32 ) ;
#30 = APPLICATION_PROTOCOL_DEFINITION ( 'draft international standard', 'automotive_design', 1998, #271 ) ;
#31 = COLOUR_RGB ( '',1.000000000000000000, 1.000000000000000000, 1.000000000000000000 ) ;
#32 = DIRECTION ( 'NONE',  ( 1.000000000000000000, 0.000000000000000000, 0.000000000000000000 ) ) ;
#33 =( NAMED_UNIT ( * ) PLANE_ANGLE_UNIT ( ) SI_UNIT ( $, .RADIAN. ) );
#34 = EDGE_CURVE ( 'NONE', #146, #221, #237, .T. ) ;
#35 = DIRECTION ( 'NONE',  ( 0.000000000000000000, 0.000000000000000000, -1.000000000000000000 ) ) ;
#36 = ADVANCED_FACE ( 'NONE', ( #215 ), #91, .T. ) ;
#37 = DIRECTION ( 'NONE',  ( 0.7071067811864988339, 8.659560562354335050E-17, -0.7071067811865962005 ) ) ;
#38 = CIRCLE ( 'NONE', #69, 12.69999999999999929 ) ;
#39 = PRODUCT_DEFINITION_CONTEXT ( 'detailed design', #271, 'design' ) ;
#40 = FACE_OUTER_BOUND ( 'NONE', #181, .T. ) ;
#41 = AXIS2_PLACEMENT_3D ( 'NONE', #100, #24, #186 ) ;
#42 = ADVANCED_FACE ( 'NONE', ( #218 ), #55, .T. ) ;
#43 = ORIENTED_EDGE ( 'NONE', *, *, #193, .T. ) ;
#44 = DIRECTION ( 'NONE',  ( -1.000000000000000000, 0.000000000000000000, 0.000000000000000000 ) ) ;
#45 = ORIENTED_EDGE ( 'NONE', *, *, #34, .F. ) ;
#46 = CARTESIAN_POINT ( 'NONE',  ( 0.000000000000000000, 0.000000000000000000, 4.000000000000000000 ) ) ;
#47 = VERTEX_POINT ( 'NONE', #85 ) ;
#48 = DIRECTION ( 'NONE',  ( 1.000000000000000000, 0.000000000000000000, 0.000000000000000000 ) ) ;
#49 = COLOUR_RGB ( '',1.000000000000000000, 1.000000000000000000, 1.000000000000000000 ) ;
#50 = AXIS2_PLACEMENT_3D ( 'NONE', #26, #115, #98 ) ;
#51 = ORIENTED_EDGE ( 'NONE', *, *, #176, .F. ) ;
#52 = DIRECTION ( 'NONE',  ( 0.000000000000000000, 0.000000000000000000, -1.000000000000000000 ) ) ;
#53 = ADVANCED_FACE ( 'NONE', ( #40 ), #150, .F. ) ;
#54 = CARTESIAN_POINT ( 'NONE',  ( 0.000000000000000000, 0.000000000000000000, 66.97211763947595387 ) ) ;
#55 = CONICAL_SURFACE ( 'NONE', #252, 12.51135459251019100, 0.7853981633973793341 ) ;
#56 = EDGE_CURVE ( 'NONE', #151, #93, #5, .T. ) ;
#57 = DIRECTION ( 'NONE',  ( 1.000000000000000000, 0.000000000000000000, 0.000000000000000000 ) ) ;
#58 = SURFACE_SIDE_STYLE ('',( #144 ) ) ;
#59 = CIRCLE ( 'NONE', #188, 209.8100000000000023 ) ;
#60 = EDGE_CURVE ( 'NONE', #221, #73, #107, .T. ) ;
#61 = ADVANCED_FACE ( 'NONE', ( #132 ), #167, .T. ) ;
#62 = FACE_OUTER_BOUND ( 'NONE', #124, .T. ) ;
#63 = CARTESIAN_POINT ( 'NONE',  ( 0.000000000000000000, 12.70000000000000995, 4.000000000000001776 ) ) ;
#64 = CARTESIAN_POINT ( 'NONE',  ( 0.000000000000000000, 0.000000000000000000, 4.000000000000000000 ) ) ;
#65 = ADVANCED_FACE ( 'NONE', ( #62 ), #130, .F. ) ;
#66 =( GEOMETRIC_REPRESENTATION_CONTEXT ( 3 ) GLOBAL_UNCERTAINTY_ASSIGNED_CONTEXT ( ( #72 ) ) GLOBAL_UNIT_ASSIGNED_CONTEXT ( ( #145, #143, #163 ) ) REPRESENTATION_CONTEXT ( 'NONE', 'WORKASPACE' ) );
#67 = ORIENTED_EDGE ( 'NONE', *, *, #211, .T. ) ;
#68 = DIRECTION ( 'NONE',  ( -0.000000000000000000, -0.000000000000000000, -1.000000000000000000 ) ) ;
#69 = AXIS2_PLACEMENT_3D ( 'NONE', #64, #202, #121 ) ;
#70 = ORIENTED_EDGE ( 'NONE', *, *, #89, .F. ) ;
#71 = CARTESIAN_POINT ( 'NONE',  ( 0.000000000000000000, 0.000000000000000000, 215.4252756951748609 ) ) ;
#72 = UNCERTAINTY_MEASURE_WITH_UNIT (LENGTH_MEASURE( 1.000000000000000082E-05 ), #145, 'distance_accuracy_value', 'NONE');
#73 = VERTEX_POINT ( 'NONE', #147 ) ;
#74 = DIRECTION ( 'NONE',  ( -0.7071067811864988339, 0.000000000000000000, -0.7071067811865962005 ) ) ;
#75 = EDGE_LOOP ( 'NONE', ( #70, #262, #158, #106 ) ) ;
#76 = LINE ( 'NONE', #243, #217 ) ;
#77 = AXIS2_PLACEMENT_3D ( 'NONE', #120, #156, #135 ) ;
#78 = AXIS2_PLACEMENT_3D ( 'NONE', #7, #4, #141 ) ;
#79 = DIRECTION ( 'NONE',  ( -0.000000000000000000, -0.000000000000000000, 1.000000000000000000 ) ) ;
#80 = DIRECTION ( 'NONE',  ( -1.000000000000000000, 1.224646799147353207E-16, 0.000000000000000000 ) ) ;
#81 = ADVANCED_FACE ( 'NONE', ( #232 ), #17, .T. ) ;
#82 = DIRECTION ( 'NONE',  ( 0.000000000000000000, 0.000000000000000000, -1.000000000000000000 ) ) ;
#83 = SURFACE_STYLE_USAGE ( .BOTH. , #58 ) ;
#84 = VECTOR ( 'NONE', #37, 1000.000000000000000 ) ;
#85 = CARTESIAN_POINT ( 'NONE',  ( 0.000000000000000000, 1.284715724645530952E-14, 5.615275695174864801 ) ) ;
#86 = CIRCLE ( 'NONE', #177, 12.51135459251022652 ) ;
#87 = CARTESIAN_POINT ( 'NONE',  ( 0.000000000000000000, 0.000000000000000000, 66.97211763947595387 ) ) ;
#88 = FACE_OUTER_BOUND ( 'NONE', #214, .T. ) ;
#89 = EDGE_CURVE ( 'NONE', #178, #93, #209, .T. ) ;
#90 = ORIENTED_EDGE ( 'NONE', *, *, #279, .F. ) ;
#91 = SPHERICAL_SURFACE ( 'NONE', #97, 64.23999999999999488 ) ;
#92 = CIRCLE ( 'NONE', #133, 64.23999999999999488 ) ;
#93 = VERTEX_POINT ( 'NONE', #63 ) ;
#94 = DIRECTION ( 'NONE',  ( -1.224646799147353207E-16, -1.000000000000000000, 0.000000000000000000 ) ) ;
#95 = ORIENTED_EDGE ( 'NONE', *, *, #8, .T. ) ;
#96 =( LENGTH_UNIT ( ) NAMED_UNIT ( * ) SI_UNIT ( .MILLI., .METRE. ) );
#97 = AXIS2_PLACEMENT_3D ( 'NONE', #126, #216, #179 ) ;
#98 = DIRECTION ( 'NONE',  ( 1.000000000000000000, 0.000000000000000000, 0.000000000000000000 ) ) ;
#99 = MANIFOLD_SOLID_BREP ( 'µ¹½Ç1', #234 ) ;
#100 = CARTESIAN_POINT ( 'NONE',  ( 0.000000000000000000, 0.000000000000000000, 4.000000000000000000 ) ) ;
#101 = PRODUCT_DEFINITION_SHAPE ( 'NONE', 'NONE',  #264 ) ;
#102 = MECHANICAL_DESIGN_GEOMETRIC_PRESENTATION_REPRESENTATION (  '', ( #187 ), #66 ) ;
#103 = CIRCLE ( 'NONE', #41, 12.69999999999999929 ) ;
#104 = EDGE_CURVE ( 'NONE', #224, #151, #38, .T. ) ;
#105 = UNCERTAINTY_MEASURE_WITH_UNIT (LENGTH_MEASURE( 1.000000000000000082E-05 ), #96, 'distance_accuracy_value', 'NONE');
#106 = ORIENTED_EDGE ( 'NONE', *, *, #203, .F. ) ;
#107 = CIRCLE ( 'NONE', #258, 12.69999999999999929 ) ;
#108 = VERTEX_POINT ( 'NONE', #228 ) ;
#109 = CARTESIAN_POINT ( 'NONE',  ( 0.000000000000000000, 0.000000000000000000, 215.4252756951748609 ) ) ;
#110 = DIRECTION ( 'NONE',  ( 0.000000000000000000, 0.000000000000000000, -1.000000000000000000 ) ) ;
#111 = SURFACE_STYLE_FILL_AREA ( #235 ) ;
#112 = ORIENTED_EDGE ( 'NONE', *, *, #104, .T. ) ;
#113 = DIRECTION ( 'NONE',  ( -0.000000000000000000, -0.000000000000000000, -1.000000000000000000 ) ) ;
#114 = ORIENTED_EDGE ( 'NONE', *, *, #208, .F. ) ;
#115 = DIRECTION ( 'NONE',  ( -0.000000000000000000, -0.000000000000000000, 1.000000000000000000 ) ) ;
#116 = EDGE_LOOP ( 'NONE', ( #281, #253, #197, #155, #114 ) ) ;
#117 =( NAMED_UNIT ( * ) PLANE_ANGLE_UNIT ( ) SI_UNIT ( $, .RADIAN. ) );
#118 = EDGE_LOOP ( 'NONE', ( #21, #240, #238, #259, #268 ) ) ;
#119 = VECTOR ( 'NONE', #148, 1000.000000000000000 ) ;
#120 = CARTESIAN_POINT ( 'NONE',  ( 0.000000000000000000, 0.000000000000000000, 5.988645407489862293 ) ) ;
#121 = DIRECTION ( 'NONE',  ( 1.000000000000000000, 0.000000000000000000, 0.000000000000000000 ) ) ;
#122 = ADVANCED_FACE ( 'NONE', ( #246 ), #182, .T. ) ;
#123 = EDGE_CURVE ( 'NONE', #236, #224, #103, .T. ) ;
#124 = EDGE_LOOP ( 'NONE', ( #174, #1, #3, #25 ) ) ;
#125 = ORIENTED_EDGE ( 'NONE', *, *, #123, .T. ) ;
#126 = CARTESIAN_POINT ( 'NONE',  ( 0.000000000000000000, 0.000000000000000000, 66.97211763947595387 ) ) ;
#127 = FILL_AREA_STYLE_COLOUR ( '', #31 ) ;
#128 = DIRECTION ( 'NONE',  ( 0.000000000000000000, 0.000000000000000000, -1.000000000000000000 ) ) ;
#129 = ORIENTED_EDGE ( 'NONE', *, *, #60, .F. ) ;
#130 = SPHERICAL_SURFACE ( 'NONE', #149, 209.8100000000000023 ) ;
#131 = ORIENTED_EDGE ( 'NONE', *, *, #104, .F. ) ;
#132 = FACE_OUTER_BOUND ( 'NONE', #116, .T. ) ;
#133 = AXIS2_PLACEMENT_3D ( 'NONE', #272, #80, #94 ) ;
#134 = ORIENTED_EDGE ( 'NONE', *, *, #227, .F. ) ;
#135 = DIRECTION ( 'NONE',  ( 1.000000000000000000, 0.000000000000000000, 0.000000000000000000 ) ) ;
#136 = EDGE_LOOP ( 'NONE', ( #134, #265, #19, #131 ) ) ;
#137 = CARTESIAN_POINT ( 'NONE',  ( 0.000000000000000000, 3.933565518861297976E-15, 2.732117639475964310 ) ) ;
#138 = AXIS2_PLACEMENT_3D ( 'NONE', #46, #263, #152 ) ;
#139 = EDGE_CURVE ( 'NONE', #73, #221, #229, .T. ) ;
#140 = CIRCLE ( 'NONE', #13, 12.69999999999999929 ) ;
#141 = DIRECTION ( 'NONE',  ( -1.224646799147353207E-16, -1.000000000000000000, 0.000000000000000000 ) ) ;
#142 = SHAPE_DEFINITION_REPRESENTATION ( #101, #248 ) ;
#143 =( NAMED_UNIT ( * ) PLANE_ANGLE_UNIT ( ) SI_UNIT ( $, .RADIAN. ) );
#144 = SURFACE_STYLE_FILL_AREA ( #10 ) ;
#145 =( LENGTH_UNIT ( ) NAMED_UNIT ( * ) SI_UNIT ( .MILLI., .METRE. ) );
#146 = VERTEX_POINT ( 'NONE', #161 ) ;
#147 = CARTESIAN_POINT ( 'NONE',  ( -12.69999999999999929, 0.000000000000000000, 5.799999999999999822 ) ) ;
#148 = DIRECTION ( 'NONE',  ( -0.000000000000000000, -0.000000000000000000, -1.000000000000000000 ) ) ;
#149 = AXIS2_PLACEMENT_3D ( 'NONE', #109, #171, #220 ) ;
#150 = SPHERICAL_SURFACE ( 'NONE', #247, 209.8100000000000023 ) ;
#151 = VERTEX_POINT ( 'NONE', #241 ) ;
#152 = DIRECTION ( 'NONE',  ( 1.000000000000000000, 0.000000000000000000, 0.000000000000000000 ) ) ;
#153 = ORIENTED_EDGE ( 'NONE', *, *, #162, .T. ) ;
#154 = DIRECTION ( 'NONE',  ( 1.000000000000000000, 0.000000000000000000, 0.000000000000000000 ) ) ;
#155 = ORIENTED_EDGE ( 'NONE', *, *, #162, .F. ) ;
#156 = DIRECTION ( 'NONE',  ( -0.000000000000000000, -0.000000000000000000, 1.000000000000000000 ) ) ;
#157 = AXIS2_PLACEMENT_3D ( 'NONE', #87, #256, #128 ) ;
#158 = ORIENTED_EDGE ( 'NONE', *, *, #123, .F. ) ;
#159 = CARTESIAN_POINT ( 'NONE',  ( 0.000000000000000000, 0.000000000000000000, 5.799999999999999822 ) ) ;
#160 = DIRECTION ( 'NONE',  ( 1.000000000000000000, 0.000000000000000000, 0.000000000000000000 ) ) ;
#161 = CARTESIAN_POINT ( 'NONE',  ( 12.51135459251022652, 1.543750235194328238E-15, 5.988645407489862293 ) ) ;
#162 = EDGE_CURVE ( 'NONE', #23, #73, #76, .T. ) ;
#163 =( NAMED_UNIT ( * ) SI_UNIT ( $, .STERADIAN. ) SOLID_ANGLE_UNIT ( ) );
#164 = PRODUCT_CONTEXT ( 'NONE', #255, 'mechanical' ) ;
#165 = AXIS2_PLACEMENT_3D ( 'NONE', #54, #184, #269 ) ;
#166 =( LENGTH_UNIT ( ) NAMED_UNIT ( * ) SI_UNIT ( .MILLI., .METRE. ) );
#167 = CONICAL_SURFACE ( 'NONE', #204, 12.51135459251019100, 0.7853981633973793341 ) ;
#168 = CARTESIAN_POINT ( 'NONE',  ( 0.000000000000000000, 0.000000000000000000, 5.799999999999999822 ) ) ;
#169 = CIRCLE ( 'NONE', #77, 12.51135459251022652 ) ;
#170 = CIRCLE ( 'NONE', #50, 12.51135459251022652 ) ;
#171 = DIRECTION ( 'NONE',  ( -1.000000000000000000, 0.000000000000000000, 0.000000000000000000 ) ) ;
#172 = DIRECTION ( 'NONE',  ( 0.000000000000000000, 0.000000000000000000, -1.000000000000000000 ) ) ;
#173 =( GEOMETRIC_REPRESENTATION_CONTEXT ( 3 ) GLOBAL_UNCERTAINTY_ASSIGNED_CONTEXT ( ( #105 ) ) GLOBAL_UNIT_ASSIGNED_CONTEXT ( ( #96, #117, #205 ) ) REPRESENTATION_CONTEXT ( 'NONE', 'WORKASPACE' ) );
#174 = ORIENTED_EDGE ( 'NONE', *, *, #193, .F. ) ;
#175 = SURFACE_STYLE_USAGE ( .BOTH. , #196 ) ;
#176 = EDGE_CURVE ( 'NONE', #47, #223, #59, .T. ) ;
#177 = AXIS2_PLACEMENT_3D ( 'NONE', #244, #200, #48 ) ;
#178 = VERTEX_POINT ( 'NONE', #137 ) ;
#179 = DIRECTION ( 'NONE',  ( 0.000000000000000000, 1.000000000000000000, 0.000000000000000000 ) ) ;
#180 = ORIENTED_EDGE ( 'NONE', *, *, #279, .T. ) ;
#181 = EDGE_LOOP ( 'NONE', ( #51, #43, #180, #67 ) ) ;
#182 = SPHERICAL_SURFACE ( 'NONE', #165, 64.23999999999999488 ) ;
#183 = EDGE_CURVE ( 'NONE', #23, #108, #249, .T. ) ;
#184 = DIRECTION ( 'NONE',  ( -1.000000000000000000, 0.000000000000000000, 0.000000000000000000 ) ) ;
#185 = CARTESIAN_POINT ( 'NONE',  ( 0.000000000000000000, 0.000000000000000000, 4.000000000000000000 ) ) ;
#186 = DIRECTION ( 'NONE',  ( 1.000000000000000000, 0.000000000000000000, 0.000000000000000000 ) ) ;
#187 = STYLED_ITEM ( 'NONE', ( #251 ), #248 ) ;
#188 = AXIS2_PLACEMENT_3D ( 'NONE', #207, #57, #52 ) ;
#189 =( NAMED_UNIT ( * ) SI_UNIT ( $, .STERADIAN. ) SOLID_ANGLE_UNIT ( ) );
#190 = PRODUCT ( 'GLM2-025B-200-UV', 'GLM2-025B-200-UV', '', ( #164 ) ) ;
#191 = APPLICATION_PROTOCOL_DEFINITION ( 'draft international standard', 'automotive_design', 1998, #255 ) ;
#192 = ORIENTED_EDGE ( 'NONE', *, *, #60, .T. ) ;
#193 = EDGE_CURVE ( 'NONE', #47, #108, #206, .T. ) ;
#194 = DIRECTION ( 'NONE',  ( -0.000000000000000000, -0.000000000000000000, -1.000000000000000000 ) ) ;
#195 = DIRECTION ( 'NONE',  ( 0.000000000000000000, 1.000000000000000000, 0.000000000000000000 ) ) ;
#196 = SURFACE_SIDE_STYLE ('',( #111 ) ) ;
#197 = ORIENTED_EDGE ( 'NONE', *, *, #139, .F. ) ;
#198 = DIRECTION ( 'NONE',  ( -1.000000000000000000, 0.000000000000000000, 0.000000000000000000 ) ) ;
#199 = ORIENTED_EDGE ( 'NONE', *, *, #183, .F. ) ;
#200 = DIRECTION ( 'NONE',  ( -0.000000000000000000, -0.000000000000000000, 1.000000000000000000 ) ) ;
#201 = LINE ( 'NONE', #22, #277 ) ;
#202 = DIRECTION ( 'NONE',  ( -0.000000000000000000, -0.000000000000000000, 1.000000000000000000 ) ) ;
#203 = EDGE_CURVE ( 'NONE', #93, #236, #140, .T. ) ;
#204 = AXIS2_PLACEMENT_3D ( 'NONE', #280, #172, #254 ) ;
#205 =( NAMED_UNIT ( * ) SI_UNIT ( $, .STERADIAN. ) SOLID_ANGLE_UNIT ( ) );
#206 = CIRCLE ( 'NONE', #78, 209.8100000000000023 ) ;
#207 = CARTESIAN_POINT ( 'NONE',  ( 0.000000000000000000, 0.000000000000000000, 215.4252756951748609 ) ) ;
#208 = EDGE_CURVE ( 'NONE', #223, #23, #170, .T. ) ;
#209 = CIRCLE ( 'NONE', #157, 64.23999999999999488 ) ;
#210 = PRESENTATION_LAYER_ASSIGNMENT (  '', '', ( #187 ) ) ;
#211 = EDGE_CURVE ( 'NONE', #146, #223, #86, .T. ) ;
#212 = AXIS2_PLACEMENT_3D ( 'NONE', #20, #68, #198 ) ;
#213 = CARTESIAN_POINT ( 'NONE',  ( 0.000000000000000000, 0.000000000000000000, 0.000000000000000000 ) ) ;
#214 = EDGE_LOOP ( 'NONE', ( #242, #192, #95, #125, #112 ) ) ;
#215 = FACE_OUTER_BOUND ( 'NONE', #75, .T. ) ;
#216 = DIRECTION ( 'NONE',  ( -1.000000000000000000, 0.000000000000000000, 0.000000000000000000 ) ) ;
#217 = VECTOR ( 'NONE', #74, 1000.000000000000000 ) ;
#218 = FACE_OUTER_BOUND ( 'NONE', #219, .T. ) ;
#219 = EDGE_LOOP ( 'NONE', ( #45, #90, #199, #153, #129 ) ) ;
#220 = DIRECTION ( 'NONE',  ( 0.000000000000000000, 1.000000000000000000, 0.000000000000000000 ) ) ;
#221 = VERTEX_POINT ( 'NONE', #245 ) ;
#222 = CARTESIAN_POINT ( 'NONE',  ( 0.000000000000000000, 0.000000000000000000, 5.988645407489833872 ) ) ;
#223 = VERTEX_POINT ( 'NONE', #2 ) ;
#224 = VERTEX_POINT ( 'NONE', #28 ) ;
#225 = DIRECTION ( 'NONE',  ( 1.000000000000000000, 0.000000000000000000, 0.000000000000000000 ) ) ;
#226 = CARTESIAN_POINT ( 'NONE',  ( 0.000000000000000000, 0.000000000000000000, 5.988645407489862293 ) ) ;
#227 = EDGE_CURVE ( 'NONE', #178, #224, #92, .T. ) ;
#228 = CARTESIAN_POINT ( 'NONE',  ( -1.532199035471557290E-15, -12.51135459251053916, 5.988645407489848083 ) ) ;
#229 = CIRCLE ( 'NONE', #9, 12.69999999999999929 ) ;
#230 = PRESENTATION_STYLE_ASSIGNMENT (( #175 ) ) ;
#231 = AXIS2_PLACEMENT_3D ( 'NONE', #233, #194, #44 ) ;
#232 = FACE_OUTER_BOUND ( 'NONE', #118, .T. ) ;
#233 = CARTESIAN_POINT ( 'NONE',  ( 0.000000000000000000, 0.000000000000000000, 10.00000000000000000 ) ) ;
#234 = CLOSED_SHELL ( 'NONE', ( #61, #53, #36, #81, #18, #122, #65, #42 ) ) ;
#235 = FILL_AREA_STYLE ('',( #127 ) ) ;
#236 = VERTEX_POINT ( 'NONE', #266 ) ;
#237 = LINE ( 'NONE', #276, #84 ) ;
#238 = ORIENTED_EDGE ( 'NONE', *, *, #56, .T. ) ;
#239 = CYLINDRICAL_SURFACE ( 'NONE', #212, 12.69999999999999929 ) ;
#240 = ORIENTED_EDGE ( 'NONE', *, *, #14, .T. ) ;
#241 = CARTESIAN_POINT ( 'NONE',  ( 12.69999999999999929, 1.555301434917138433E-15, 4.000000000000000000 ) ) ;
#242 = ORIENTED_EDGE ( 'NONE', *, *, #14, .F. ) ;
#243 = CARTESIAN_POINT ( 'NONE',  ( -12.51135459251019100, 0.000000000000000000, 5.988645407489833872 ) ) ;
#244 = CARTESIAN_POINT ( 'NONE',  ( 0.000000000000000000, 0.000000000000000000, 5.988645407489862293 ) ) ;
#245 = CARTESIAN_POINT ( 'NONE',  ( 12.69999999999999929, 1.555301434917138433E-15, 5.799999999999999822 ) ) ;
#246 = FACE_OUTER_BOUND ( 'NONE', #136, .T. ) ;
#247 = AXIS2_PLACEMENT_3D ( 'NONE', #71, #15, #195 ) ;
#248 = ADVANCED_BREP_SHAPE_REPRESENTATION ( 'GLM2-025B-200-UV', ( #99, #29 ), #16 ) ;
#249 = CIRCLE ( 'NONE', #261, 12.51135459251022652 ) ;
#250 = PRODUCT_RELATED_PRODUCT_CATEGORY ( 'part', '', ( #190 ) ) ;
#251 = PRESENTATION_STYLE_ASSIGNMENT (( #83 ) ) ;
#252 = AXIS2_PLACEMENT_3D ( 'NONE', #222, #110, #278 ) ;
#253 = ORIENTED_EDGE ( 'NONE', *, *, #34, .T. ) ;
#254 = DIRECTION ( 'NONE',  ( -1.000000000000000000, 0.000000000000000000, 0.000000000000000000 ) ) ;
#255 = APPLICATION_CONTEXT ( 'automotive_design' ) ;
#256 = DIRECTION ( 'NONE',  ( 1.000000000000000000, -0.000000000000000000, 0.000000000000000000 ) ) ;
#257 = CARTESIAN_POINT ( 'NONE',  ( -12.51135459251022652, 0.000000000000000000, 5.988645407489862293 ) ) ;
#258 = AXIS2_PLACEMENT_3D ( 'NONE', #168, #35, #154 ) ;
#259 = ORIENTED_EDGE ( 'NONE', *, *, #203, .T. ) ;
#260 = CARTESIAN_POINT ( 'NONE',  ( 12.69999999999999929, 1.555301434917138433E-15, 10.00000000000000000 ) ) ;
#261 = AXIS2_PLACEMENT_3D ( 'NONE', #226, #270, #225 ) ;
#262 = ORIENTED_EDGE ( 'NONE', *, *, #227, .T. ) ;
#263 = DIRECTION ( 'NONE',  ( -0.000000000000000000, -0.000000000000000000, 1.000000000000000000 ) ) ;
#264 = PRODUCT_DEFINITION ( 'Î´Öª', '', #275, #39 ) ;
#265 = ORIENTED_EDGE ( 'NONE', *, *, #89, .T. ) ;
#266 = CARTESIAN_POINT ( 'NONE',  ( -12.69999999999999929, 0.000000000000000000, 4.000000000000000000 ) ) ;
#267 = STYLED_ITEM ( 'NONE', ( #230 ), #99 ) ;
#268 = ORIENTED_EDGE ( 'NONE', *, *, #8, .F. ) ;
#269 = DIRECTION ( 'NONE',  ( 0.000000000000000000, 1.000000000000000000, 0.000000000000000000 ) ) ;
#270 = DIRECTION ( 'NONE',  ( -0.000000000000000000, -0.000000000000000000, 1.000000000000000000 ) ) ;
#271 = APPLICATION_CONTEXT ( 'automotive_design' ) ;
#272 = CARTESIAN_POINT ( 'NONE',  ( 0.000000000000000000, 0.000000000000000000, 66.97211763947595387 ) ) ;
#273 = FILL_AREA_STYLE_COLOUR ( '', #49 ) ;
#274 = UNCERTAINTY_MEASURE_WITH_UNIT (LENGTH_MEASURE( 1.000000000000000082E-05 ), #166, 'distance_accuracy_value', 'NONE');
#275 = PRODUCT_DEFINITION_FORMATION_WITH_SPECIFIED_SOURCE ( 'ÈÎºÎ', '', #190, .NOT_KNOWN. ) ;
#276 = CARTESIAN_POINT ( 'NONE',  ( 12.51135459251019100, 1.532199035471513902E-15, 5.988645407489833872 ) ) ;
#277 = VECTOR ( 'NONE', #113, 1000.000000000000000 ) ;
#278 = DIRECTION ( 'NONE',  ( -1.000000000000000000, 0.000000000000000000, 0.000000000000000000 ) ) ;
#279 = EDGE_CURVE ( 'NONE', #108, #146, #169, .T. ) ;
#280 = CARTESIAN_POINT ( 'NONE',  ( 0.000000000000000000, 0.000000000000000000, 5.988645407489833872 ) ) ;
#281 = ORIENTED_EDGE ( 'NONE', *, *, #211, .F. ) ;
#282 = LINE ( 'NONE', #260, #119 ) ;
ENDSEC;
END-ISO-10303-21;
