ISO-10303-21;
HEADER;
FILE_DESCRIPTION (( 'STEP AP214' ),
    '1' );
FILE_NAME ('GLM5-025B-075.STEP',
    '2024-08-09T03:09:24',
    ( 'Windows User' ),
    ( 'P R C' ),
    'SwSTEP 2.0',
    'SolidWorks 2022',
    '' );
FILE_SCHEMA (( 'AUTOMOTIVE_DESIGN' ));
ENDSEC;

DATA;
#1 = PRODUCT_DEFINITION_CONTEXT ( 'detailed design', #25, 'design' ) ;
#2 =( GEOMETRIC_REPRESENTATION_CONTEXT ( 3 ) GLOBAL_UNCERTAINTY_ASSIGNED_CONTEXT ( ( #176 ) ) GLOBAL_UNIT_ASSIGNED_CONTEXT ( ( #279, #19, #242 ) ) REPRESENTATION_CONTEXT ( 'NONE', 'WORKASPACE' ) );
#3 = ORIENTED_EDGE ( 'NONE', *, *, #130, .T. ) ;
#4 = ORIENTED_EDGE ( 'NONE', *, *, #156, .F. ) ;
#5 = ADVANCED_FACE ( 'NONE', ( #98 ), #117, .T. ) ;
#6 = CIRCLE ( 'NONE', #207, 12.69999999999999929 ) ;
#7 = ORIENTED_EDGE ( 'NONE', *, *, #105, .F. ) ;
#8 = APPLICATION_CONTEXT ( 'automotive_design' ) ;
#9 = VERTEX_POINT ( 'NONE', #30 ) ;
#10 = FACE_OUTER_BOUND ( 'NONE', #32, .T. ) ;
#11 = LINE ( 'NONE', #125, #220 ) ;
#12 = CARTESIAN_POINT ( 'NONE',  ( 0.000000000000000000, 0.000000000000000000, 10.00000000000000000 ) ) ;
#13 = CIRCLE ( 'NONE', #179, 12.69999999999999751 ) ;
#14 = CARTESIAN_POINT ( 'NONE',  ( 0.000000000000000000, 0.000000000000000000, 10.00000000000000000 ) ) ;
#15 = CARTESIAN_POINT ( 'NONE',  ( 0.000000000000000000, 0.000000000000000000, 36.95415797016601545 ) ) ;
#16 = DIRECTION ( 'NONE',  ( -0.000000000000000000, -0.000000000000000000, 1.000000000000000000 ) ) ;
#17 =( GEOMETRIC_REPRESENTATION_CONTEXT ( 3 ) GLOBAL_UNCERTAINTY_ASSIGNED_CONTEXT ( ( #55 ) ) GLOBAL_UNIT_ASSIGNED_CONTEXT ( ( #218, #221, #24 ) ) REPRESENTATION_CONTEXT ( 'NONE', 'WORKASPACE' ) );
#18 = DIRECTION ( 'NONE',  ( -0.000000000000000000, -0.000000000000000000, 1.000000000000000000 ) ) ;
#19 =( NAMED_UNIT ( * ) PLANE_ANGLE_UNIT ( ) SI_UNIT ( $, .RADIAN. ) );
#20 = AXIS2_PLACEMENT_3D ( 'NONE', #103, #275, #80 ) ;
#21 = DIRECTION ( 'NONE',  ( 0.7071067811865430208, 8.659560562354877391E-17, -0.7071067811865521247 ) ) ;
#22 = SHAPE_DEFINITION_REPRESENTATION ( #168, #88 ) ;
#23 =( NAMED_UNIT ( * ) SI_UNIT ( $, .STERADIAN. ) SOLID_ANGLE_UNIT ( ) );
#24 =( NAMED_UNIT ( * ) SI_UNIT ( $, .STERADIAN. ) SOLID_ANGLE_UNIT ( ) );
#25 = APPLICATION_CONTEXT ( 'automotive_design' ) ;
#26 = EDGE_LOOP ( 'NONE', ( #201, #252, #140, #118 ) ) ;
#27 = COLOUR_RGB ( '',1.000000000000000000, 1.000000000000000000, 1.000000000000000000 ) ;
#28 = VERTEX_POINT ( 'NONE', #197 ) ;
#29 = EDGE_CURVE ( 'NONE', #246, #271, #147, .T. ) ;
#30 = CARTESIAN_POINT ( 'NONE',  ( -12.69999999999999751, 0.000000000000000000, 10.00000000000000000 ) ) ;
#31 = AXIS2_PLACEMENT_3D ( 'NONE', #36, #235, #57 ) ;
#32 = EDGE_LOOP ( 'NONE', ( #181, #100, #180, #249, #248 ) ) ;
#33 = ORIENTED_EDGE ( 'NONE', *, *, #236, .T. ) ;
#34 = DIRECTION ( 'NONE',  ( 0.000000000000000000, 0.000000000000000000, -1.000000000000000000 ) ) ;
#35 = DIRECTION ( 'NONE',  ( -0.000000000000000000, -0.000000000000000000, -1.000000000000000000 ) ) ;
#36 = CARTESIAN_POINT ( 'NONE',  ( 0.000000000000000000, 0.000000000000000000, 20.00000000000000000 ) ) ;
#37 = AXIS2_PLACEMENT_3D ( 'NONE', #119, #121, #52 ) ;
#38 = DIRECTION ( 'NONE',  ( -0.000000000000000000, -0.000000000000000000, 1.000000000000000000 ) ) ;
#39 = CARTESIAN_POINT ( 'NONE',  ( 12.69999999999999929, 1.555301434917138433E-15, 11.79999999999999183 ) ) ;
#40 = CARTESIAN_POINT ( 'NONE',  ( -1.555301434917138038E-15, -12.69999999999999574, 10.00000000000000000 ) ) ;
#41 = AXIS2_PLACEMENT_3D ( 'NONE', #194, #258, #152 ) ;
#42 = EDGE_CURVE ( 'NONE', #95, #96, #6, .T. ) ;
#43 = DIRECTION ( 'NONE',  ( -1.000000000000000000, 0.000000000000000000, 0.000000000000000000 ) ) ;
#44 = LINE ( 'NONE', #172, #239 ) ;
#45 =( GEOMETRIC_REPRESENTATION_CONTEXT ( 3 ) GLOBAL_UNCERTAINTY_ASSIGNED_CONTEXT ( ( #282 ) ) GLOBAL_UNIT_ASSIGNED_CONTEXT ( ( #238, #204, #23 ) ) REPRESENTATION_CONTEXT ( 'NONE', 'WORKASPACE' ) );
#46 = AXIS2_PLACEMENT_3D ( 'NONE', #12, #163, #127 ) ;
#47 = ADVANCED_FACE ( 'NONE', ( #10 ), #223, .T. ) ;
#48 = EDGE_LOOP ( 'NONE', ( #230, #186, #7, #69 ) ) ;
#49 = ADVANCED_FACE ( 'NONE', ( #213 ), #277, .T. ) ;
#50 = EDGE_LOOP ( 'NONE', ( #76, #120, #274, #264 ) ) ;
#51 = ORIENTED_EDGE ( 'NONE', *, *, #29, .F. ) ;
#52 = DIRECTION ( 'NONE',  ( -1.224646799147353207E-16, -1.000000000000000000, 0.000000000000000000 ) ) ;
#53 = CONICAL_SURFACE ( 'NONE', #217, 12.56716181665030518, 0.7853981633974418397 ) ;
#54 = CARTESIAN_POINT ( 'NONE',  ( 0.000000000000000000, 0.000000000000000000, 11.79999999999999183 ) ) ;
#55 = UNCERTAINTY_MEASURE_WITH_UNIT (LENGTH_MEASURE( 1.000000000000000082E-05 ), #218, 'distance_accuracy_value', 'NONE');
#56 = EDGE_CURVE ( 'NONE', #232, #226, #89, .T. ) ;
#57 = DIRECTION ( 'NONE',  ( -1.000000000000000000, 0.000000000000000000, 0.000000000000000000 ) ) ;
#58 = DIRECTION ( 'NONE',  ( 0.000000000000000000, 0.000000000000000000, -1.000000000000000000 ) ) ;
#59 = DIRECTION ( 'NONE',  ( -1.224646799147353207E-16, -1.000000000000000000, 0.000000000000000000 ) ) ;
#60 = ADVANCED_FACE ( 'NONE', ( #148 ), #237, .T. ) ;
#61 = CARTESIAN_POINT ( 'NONE',  ( -12.56716181665030341, 0.000000000000000000, 11.93283818334969126 ) ) ;
#62 = DIRECTION ( 'NONE',  ( -0.000000000000000000, -0.000000000000000000, -1.000000000000000000 ) ) ;
#63 = CARTESIAN_POINT ( 'NONE',  ( 0.000000000000000000, 0.000000000000000000, 11.93283818334969126 ) ) ;
#64 = AXIS2_PLACEMENT_3D ( 'NONE', #126, #18, #241 ) ;
#65 = PRESENTATION_STYLE_ASSIGNMENT (( #259 ) ) ;
#66 = CARTESIAN_POINT ( 'NONE',  ( 0.000000000000000000, 1.714505518806294441E-15, 8.954157970166020775 ) ) ;
#67 = FILL_AREA_STYLE ('',( #263 ) ) ;
#68 = LINE ( 'NONE', #219, #243 ) ;
#69 = ORIENTED_EDGE ( 'NONE', *, *, #130, .F. ) ;
#70 = DIRECTION ( 'NONE',  ( 0.000000000000000000, 0.000000000000000000, 1.000000000000000000 ) ) ;
#71 = CIRCLE ( 'NONE', #231, 12.69999999999999751 ) ;
#72 = AXIS2_PLACEMENT_3D ( 'NONE', #104, #38, #188 ) ;
#73 = ORIENTED_EDGE ( 'NONE', *, *, #131, .T. ) ;
#74 = AXIS2_PLACEMENT_3D ( 'NONE', #83, #233, #59 ) ;
#75 = CARTESIAN_POINT ( 'NONE',  ( 0.000000000000000000, 0.000000000000000000, 20.00000000000000000 ) ) ;
#76 = ORIENTED_EDGE ( 'NONE', *, *, #254, .F. ) ;
#77 = DIRECTION ( 'NONE',  ( -0.000000000000000000, -0.000000000000000000, -1.000000000000000000 ) ) ;
#78 = EDGE_LOOP ( 'NONE', ( #51, #183, #281, #33 ) ) ;
#79 = CIRCLE ( 'NONE', #250, 12.56716181665030341 ) ;
#80 = DIRECTION ( 'NONE',  ( 1.000000000000000000, 0.000000000000000000, 0.000000000000000000 ) ) ;
#81 = CARTESIAN_POINT ( 'NONE',  ( 0.000000000000000000, 0.000000000000000000, 10.00000000000000000 ) ) ;
#82 = ADVANCED_FACE ( 'NONE', ( #145 ), #122, .F. ) ;
#83 = CARTESIAN_POINT ( 'NONE',  ( 0.000000000000000000, 0.000000000000000000, 18.88594395660922487 ) ) ;
#84 = DIRECTION ( 'NONE',  ( 1.000000000000000000, 0.000000000000000000, 0.000000000000000000 ) ) ;
#85 = AXIS2_PLACEMENT_3D ( 'NONE', #101, #34, #190 ) ;
#86 = CARTESIAN_POINT ( 'NONE',  ( 0.000000000000000000, 9.491012693391985815E-16, 3.385943956609228422 ) ) ;
#87 = CARTESIAN_POINT ( 'NONE',  ( 0.000000000000000000, 12.69999999999999574, 10.00000000000000000 ) ) ;
#88 = ADVANCED_BREP_SHAPE_REPRESENTATION ( 'GLM5-025B-075', ( #154, #178 ), #45 ) ;
#89 = CIRCLE ( 'NONE', #114, 15.49999999999999645 ) ;
#90 = CARTESIAN_POINT ( 'NONE',  ( 0.000000000000000000, 0.000000000000000000, 0.000000000000000000 ) ) ;
#91 = CIRCLE ( 'NONE', #276, 12.69999999999999929 ) ;
#92 = EDGE_CURVE ( 'NONE', #232, #251, #225, .T. ) ;
#93 = STYLED_ITEM ( 'NONE', ( #149 ), #154 ) ;
#94 = ORIENTED_EDGE ( 'NONE', *, *, #42, .F. ) ;
#95 = VERTEX_POINT ( 'NONE', #39 ) ;
#96 = VERTEX_POINT ( 'NONE', #203 ) ;
#97 = MECHANICAL_DESIGN_GEOMETRIC_PRESENTATION_REPRESENTATION (  '', ( #93 ), #2 ) ;
#98 = FACE_OUTER_BOUND ( 'NONE', #224, .T. ) ;
#99 = PRESENTATION_LAYER_ASSIGNMENT (  '', '', ( #184 ) ) ;
#100 = ORIENTED_EDGE ( 'NONE', *, *, #262, .T. ) ;
#101 = CARTESIAN_POINT ( 'NONE',  ( 0.000000000000000000, 0.000000000000000000, 11.93283818334968771 ) ) ;
#102 = CIRCLE ( 'NONE', #46, 12.69999999999999751 ) ;
#103 = CARTESIAN_POINT ( 'NONE',  ( 0.000000000000000000, 0.000000000000000000, 11.93283818334969126 ) ) ;
#104 = CARTESIAN_POINT ( 'NONE',  ( 0.000000000000000000, 0.000000000000000000, 11.93283818334969126 ) ) ;
#105 = EDGE_CURVE ( 'NONE', #267, #226, #102, .T. ) ;
#106 = DIRECTION ( 'NONE',  ( 0.000000000000000000, 1.000000000000000000, 0.000000000000000000 ) ) ;
#107 = CARTESIAN_POINT ( 'NONE',  ( 12.56716181665030341, 1.547167442114950603E-15, 11.93283818334969126 ) ) ;
#108 = DIRECTION ( 'NONE',  ( 1.000000000000000000, 0.000000000000000000, 0.000000000000000000 ) ) ;
#109 = DIRECTION ( 'NONE',  ( -0.7071067811865430208, 0.000000000000000000, -0.7071067811865521247 ) ) ;
#110 = PRESENTATION_LAYER_ASSIGNMENT (  '', '', ( #93 ) ) ;
#111 = DIRECTION ( 'NONE',  ( 1.000000000000000000, 0.000000000000000000, 0.000000000000000000 ) ) ;
#112 = AXIS2_PLACEMENT_3D ( 'NONE', #15, #171, #234 ) ;
#113 = PRODUCT_RELATED_PRODUCT_CATEGORY ( 'part', '', ( #135 ) ) ;
#114 = AXIS2_PLACEMENT_3D ( 'NONE', #187, #253, #170 ) ;
#115 = EDGE_CURVE ( 'NONE', #268, #28, #270, .T. ) ;
#116 = AXIS2_PLACEMENT_3D ( 'NONE', #81, #16, #108 ) ;
#117 = CYLINDRICAL_SURFACE ( 'NONE', #195, 12.69999999999999929 ) ;
#118 = ORIENTED_EDGE ( 'NONE', *, *, #158, .F. ) ;
#119 = CARTESIAN_POINT ( 'NONE',  ( 0.000000000000000000, 0.000000000000000000, 36.95415797016601545 ) ) ;
#120 = ORIENTED_EDGE ( 'NONE', *, *, #29, .T. ) ;
#121 = DIRECTION ( 'NONE',  ( -1.000000000000000000, 1.224646799147353207E-16, 0.000000000000000000 ) ) ;
#122 = SPHERICAL_SURFACE ( 'NONE', #137, 27.99999999999999645 ) ;
#123 = SURFACE_STYLE_USAGE ( .BOTH. , #260 ) ;
#124 = CARTESIAN_POINT ( 'NONE',  ( 0.000000000000000000, 0.000000000000000000, 36.95415797016601545 ) ) ;
#125 = CARTESIAN_POINT ( 'NONE',  ( -12.69999999999999929, 0.000000000000000000, 20.00000000000000000 ) ) ;
#126 = CARTESIAN_POINT ( 'NONE',  ( 0.000000000000000000, 0.000000000000000000, 11.93283818334969126 ) ) ;
#127 = DIRECTION ( 'NONE',  ( 1.000000000000000000, 0.000000000000000000, 0.000000000000000000 ) ) ;
#128 = DIRECTION ( 'NONE',  ( 0.000000000000000000, 0.000000000000000000, -1.000000000000000000 ) ) ;
#129 = CARTESIAN_POINT ( 'NONE',  ( 0.000000000000000000, 0.000000000000000000, 10.00000000000000000 ) ) ;
#130 = EDGE_CURVE ( 'NONE', #251, #267, #71, .T. ) ;
#131 = EDGE_CURVE ( 'NONE', #9, #251, #13, .T. ) ;
#132 = CLOSED_SHELL ( 'NONE', ( #47, #192, #82, #49, #5, #269, #60, #141 ) ) ;
#133 = APPLICATION_PROTOCOL_DEFINITION ( 'draft international standard', 'automotive_design', 1998, #8 ) ;
#134 = ORIENTED_EDGE ( 'NONE', *, *, #158, .T. ) ;
#135 = PRODUCT ( 'GLM5-025B-075', 'GLM5-025B-075', '', ( #222 ) ) ;
#136 = ORIENTED_EDGE ( 'NONE', *, *, #198, .T. ) ;
#137 = AXIS2_PLACEMENT_3D ( 'NONE', #124, #208, #106 ) ;
#138 = ORIENTED_EDGE ( 'NONE', *, *, #266, .T. ) ;
#139 = VECTOR ( 'NONE', #62, 1000.000000000000000 ) ;
#140 = ORIENTED_EDGE ( 'NONE', *, *, #131, .F. ) ;
#141 = ADVANCED_FACE ( 'NONE', ( #210 ), #53, .T. ) ;
#142 = ORIENTED_EDGE ( 'NONE', *, *, #245, .T. ) ;
#143 = DIRECTION ( 'NONE',  ( 0.000000000000000000, 0.000000000000000000, -1.000000000000000000 ) ) ;
#144 = DIRECTION ( 'NONE',  ( -1.000000000000000000, 0.000000000000000000, 0.000000000000000000 ) ) ;
#145 = FACE_OUTER_BOUND ( 'NONE', #50, .T. ) ;
#146 = DIRECTION ( 'NONE',  ( -0.000000000000000000, -0.000000000000000000, 1.000000000000000000 ) ) ;
#147 = CIRCLE ( 'NONE', #37, 27.99999999999999645 ) ;
#148 = FACE_OUTER_BOUND ( 'NONE', #48, .T. ) ;
#149 = PRESENTATION_STYLE_ASSIGNMENT (( #123 ) ) ;
#150 = CIRCLE ( 'NONE', #72, 12.56716181665030341 ) ;
#151 = PRODUCT_DEFINITION_FORMATION_WITH_SPECIFIED_SOURCE ( 'ÈÎºÎ', '', #135, .NOT_KNOWN. ) ;
#152 = DIRECTION ( 'NONE',  ( 0.000000000000000000, 0.000000000000000000, -1.000000000000000000 ) ) ;
#153 = DIRECTION ( 'NONE',  ( 1.000000000000000000, 0.000000000000000000, 0.000000000000000000 ) ) ;
#154 = MANIFOLD_SOLID_BREP ( 'µ¹½Ç1', #132 ) ;
#155 = CARTESIAN_POINT ( 'NONE',  ( 12.69999999999999929, 1.555301434917138433E-15, 20.00000000000000000 ) ) ;
#156 = EDGE_CURVE ( 'NONE', #95, #267, #191, .T. ) ;
#157 = ORIENTED_EDGE ( 'NONE', *, *, #169, .F. ) ;
#158 = EDGE_CURVE ( 'NONE', #226, #9, #212, .T. ) ;
#159 = EDGE_LOOP ( 'NONE', ( #136, #200, #185, #134, #272 ) ) ;
#160 = CIRCLE ( 'NONE', #41, 27.99999999999999645 ) ;
#161 = EDGE_LOOP ( 'NONE', ( #199, #157, #227, #142, #94 ) ) ;
#162 = DIRECTION ( 'NONE',  ( -1.000000000000000000, 0.000000000000000000, 0.000000000000000000 ) ) ;
#163 = DIRECTION ( 'NONE',  ( -0.000000000000000000, -0.000000000000000000, 1.000000000000000000 ) ) ;
#164 = CIRCLE ( 'NONE', #64, 12.56716181665030341 ) ;
#165 = DIRECTION ( 'NONE',  ( 0.000000000000000000, 1.000000000000000000, 0.000000000000000000 ) ) ;
#166 = SPHERICAL_SURFACE ( 'NONE', #112, 27.99999999999999645 ) ;
#167 = DIRECTION ( 'NONE',  ( -1.000000000000000000, 0.000000000000000000, 0.000000000000000000 ) ) ;
#168 = PRODUCT_DEFINITION_SHAPE ( 'NONE', 'NONE',  #206 ) ;
#169 = EDGE_CURVE ( 'NONE', #271, #268, #150, .T. ) ;
#170 = DIRECTION ( 'NONE',  ( 0.000000000000000000, 0.000000000000000000, -1.000000000000000000 ) ) ;
#171 = DIRECTION ( 'NONE',  ( -1.000000000000000000, 0.000000000000000000, 0.000000000000000000 ) ) ;
#172 = CARTESIAN_POINT ( 'NONE',  ( -12.56716181665030518, 0.000000000000000000, 11.93283818334968771 ) ) ;
#173 = CARTESIAN_POINT ( 'NONE',  ( 12.69999999999999751, 1.555301434917138235E-15, 10.00000000000000000 ) ) ;
#174 = SURFACE_SIDE_STYLE ('',( #215 ) ) ;
#175 = DIRECTION ( 'NONE',  ( 0.000000000000000000, 1.000000000000000000, 0.000000000000000000 ) ) ;
#176 = UNCERTAINTY_MEASURE_WITH_UNIT (LENGTH_MEASURE( 1.000000000000000082E-05 ), #279, 'distance_accuracy_value', 'NONE');
#177 = DIRECTION ( 'NONE',  ( -0.000000000000000000, -0.000000000000000000, 1.000000000000000000 ) ) ;
#178 = AXIS2_PLACEMENT_3D ( 'NONE', #90, #70, #265 ) ;
#179 = AXIS2_PLACEMENT_3D ( 'NONE', #129, #240, #111 ) ;
#180 = ORIENTED_EDGE ( 'NONE', *, *, #198, .F. ) ;
#181 = ORIENTED_EDGE ( 'NONE', *, *, #115, .F. ) ;
#182 = COLOUR_RGB ( '',1.000000000000000000, 1.000000000000000000, 1.000000000000000000 ) ;
#183 = ORIENTED_EDGE ( 'NONE', *, *, #254, .T. ) ;
#184 = STYLED_ITEM ( 'NONE', ( #65 ), #88 ) ;
#185 = ORIENTED_EDGE ( 'NONE', *, *, #105, .T. ) ;
#186 = ORIENTED_EDGE ( 'NONE', *, *, #56, .T. ) ;
#187 = CARTESIAN_POINT ( 'NONE',  ( 0.000000000000000000, 0.000000000000000000, 18.88594395660922487 ) ) ;
#188 = DIRECTION ( 'NONE',  ( 1.000000000000000000, 0.000000000000000000, 0.000000000000000000 ) ) ;
#189 = MECHANICAL_DESIGN_GEOMETRIC_PRESENTATION_REPRESENTATION (  '', ( #184 ), #17 ) ;
#190 = DIRECTION ( 'NONE',  ( -1.000000000000000000, 0.000000000000000000, 0.000000000000000000 ) ) ;
#191 = LINE ( 'NONE', #155, #139 ) ;
#192 = ADVANCED_FACE ( 'NONE', ( #216 ), #261, .T. ) ;
#193 = CARTESIAN_POINT ( 'NONE',  ( -1.539033449312763562E-15, -12.56716181665030874, 11.93283818334969126 ) ) ;
#194 = CARTESIAN_POINT ( 'NONE',  ( 0.000000000000000000, 0.000000000000000000, 36.95415797016601545 ) ) ;
#195 = AXIS2_PLACEMENT_3D ( 'NONE', #75, #77, #162 ) ;
#196 = FILL_AREA_STYLE ('',( #257 ) ) ;
#197 = CARTESIAN_POINT ( 'NONE',  ( 0.000000000000000000, 12.56716181665030874, 11.93283818334969126 ) ) ;
#198 = EDGE_CURVE ( 'NONE', #96, #95, #91, .T. ) ;
#199 = ORIENTED_EDGE ( 'NONE', *, *, #262, .F. ) ;
#200 = ORIENTED_EDGE ( 'NONE', *, *, #156, .T. ) ;
#201 = ORIENTED_EDGE ( 'NONE', *, *, #56, .F. ) ;
#202 = DIRECTION ( 'NONE',  ( 1.000000000000000000, 0.000000000000000000, 0.000000000000000000 ) ) ;
#203 = CARTESIAN_POINT ( 'NONE',  ( -12.69999999999999929, 0.000000000000000000, 11.79999999999999183 ) ) ;
#204 =( NAMED_UNIT ( * ) PLANE_ANGLE_UNIT ( ) SI_UNIT ( $, .RADIAN. ) );
#205 = SURFACE_STYLE_FILL_AREA ( #196 ) ;
#206 = PRODUCT_DEFINITION ( 'Î´Öª', '', #151, #1 ) ;
#207 = AXIS2_PLACEMENT_3D ( 'NONE', #54, #143, #202 ) ;
#208 = DIRECTION ( 'NONE',  ( -1.000000000000000000, 0.000000000000000000, 0.000000000000000000 ) ) ;
#209 = FACE_OUTER_BOUND ( 'NONE', #78, .T. ) ;
#210 = FACE_OUTER_BOUND ( 'NONE', #161, .T. ) ;
#211 = EDGE_CURVE ( 'NONE', #28, #273, #164, .T. ) ;
#212 = CIRCLE ( 'NONE', #116, 12.69999999999999751 ) ;
#213 = FACE_OUTER_BOUND ( 'NONE', #159, .T. ) ;
#214 = CARTESIAN_POINT ( 'NONE',  ( 0.000000000000000000, 0.000000000000000000, 11.79999999999999183 ) ) ;
#215 = SURFACE_STYLE_FILL_AREA ( #67 ) ;
#216 = FACE_OUTER_BOUND ( 'NONE', #26, .T. ) ;
#217 = AXIS2_PLACEMENT_3D ( 'NONE', #256, #128, #167 ) ;
#218 =( LENGTH_UNIT ( ) NAMED_UNIT ( * ) SI_UNIT ( .MILLI., .METRE. ) );
#219 = CARTESIAN_POINT ( 'NONE',  ( 12.56716181665030518, 1.539033449312763168E-15, 11.93283818334968771 ) ) ;
#220 = VECTOR ( 'NONE', #35, 1000.000000000000000 ) ;
#221 =( NAMED_UNIT ( * ) PLANE_ANGLE_UNIT ( ) SI_UNIT ( $, .RADIAN. ) );
#222 = PRODUCT_CONTEXT ( 'NONE', #8, 'mechanical' ) ;
#223 = CONICAL_SURFACE ( 'NONE', #85, 12.56716181665030518, 0.7853981633974418397 ) ;
#224 = EDGE_LOOP ( 'NONE', ( #4, #229, #138, #73, #3 ) ) ;
#225 = CIRCLE ( 'NONE', #74, 15.49999999999999645 ) ;
#226 = VERTEX_POINT ( 'NONE', #87 ) ;
#227 = ORIENTED_EDGE ( 'NONE', *, *, #236, .F. ) ;
#228 = AXIS2_PLACEMENT_3D ( 'NONE', #280, #43, #175 ) ;
#229 = ORIENTED_EDGE ( 'NONE', *, *, #42, .T. ) ;
#230 = ORIENTED_EDGE ( 'NONE', *, *, #92, .F. ) ;
#231 = AXIS2_PLACEMENT_3D ( 'NONE', #14, #177, #153 ) ;
#232 = VERTEX_POINT ( 'NONE', #86 ) ;
#233 = DIRECTION ( 'NONE',  ( -1.000000000000000000, 1.224646799147353207E-16, 0.000000000000000000 ) ) ;
#234 = DIRECTION ( 'NONE',  ( 0.000000000000000000, 1.000000000000000000, 0.000000000000000000 ) ) ;
#235 = DIRECTION ( 'NONE',  ( -0.000000000000000000, -0.000000000000000000, -1.000000000000000000 ) ) ;
#236 = EDGE_CURVE ( 'NONE', #273, #271, #79, .T. ) ;
#237 = SPHERICAL_SURFACE ( 'NONE', #247, 15.49999999999999645 ) ;
#238 =( LENGTH_UNIT ( ) NAMED_UNIT ( * ) SI_UNIT ( .MILLI., .METRE. ) );
#239 = VECTOR ( 'NONE', #109, 999.9999999999998863 ) ;
#240 = DIRECTION ( 'NONE',  ( -0.000000000000000000, -0.000000000000000000, 1.000000000000000000 ) ) ;
#241 = DIRECTION ( 'NONE',  ( 1.000000000000000000, 0.000000000000000000, 0.000000000000000000 ) ) ;
#242 =( NAMED_UNIT ( * ) SI_UNIT ( $, .STERADIAN. ) SOLID_ANGLE_UNIT ( ) );
#243 = VECTOR ( 'NONE', #21, 999.9999999999998863 ) ;
#244 = APPLICATION_PROTOCOL_DEFINITION ( 'draft international standard', 'automotive_design', 1998, #25 ) ;
#245 = EDGE_CURVE ( 'NONE', #273, #96, #44, .T. ) ;
#246 = VERTEX_POINT ( 'NONE', #66 ) ;
#247 = AXIS2_PLACEMENT_3D ( 'NONE', #255, #144, #165 ) ;
#248 = ORIENTED_EDGE ( 'NONE', *, *, #211, .F. ) ;
#249 = ORIENTED_EDGE ( 'NONE', *, *, #245, .F. ) ;
#250 = AXIS2_PLACEMENT_3D ( 'NONE', #63, #146, #84 ) ;
#251 = VERTEX_POINT ( 'NONE', #40 ) ;
#252 = ORIENTED_EDGE ( 'NONE', *, *, #92, .T. ) ;
#253 = DIRECTION ( 'NONE',  ( 1.000000000000000000, -0.000000000000000000, 0.000000000000000000 ) ) ;
#254 = EDGE_CURVE ( 'NONE', #246, #28, #160, .T. ) ;
#255 = CARTESIAN_POINT ( 'NONE',  ( 0.000000000000000000, 0.000000000000000000, 18.88594395660922487 ) ) ;
#256 = CARTESIAN_POINT ( 'NONE',  ( 0.000000000000000000, 0.000000000000000000, 11.93283818334968771 ) ) ;
#257 = FILL_AREA_STYLE_COLOUR ( '', #182 ) ;
#258 = DIRECTION ( 'NONE',  ( 1.000000000000000000, 0.000000000000000000, 0.000000000000000000 ) ) ;
#259 = SURFACE_STYLE_USAGE ( .BOTH. , #174 ) ;
#260 = SURFACE_SIDE_STYLE ('',( #205 ) ) ;
#261 = SPHERICAL_SURFACE ( 'NONE', #228, 15.49999999999999645 ) ;
#262 = EDGE_CURVE ( 'NONE', #268, #95, #68, .T. ) ;
#263 = FILL_AREA_STYLE_COLOUR ( '', #27 ) ;
#264 = ORIENTED_EDGE ( 'NONE', *, *, #115, .T. ) ;
#265 = DIRECTION ( 'NONE',  ( 1.000000000000000000, 0.000000000000000000, 0.000000000000000000 ) ) ;
#266 = EDGE_CURVE ( 'NONE', #96, #9, #11, .T. ) ;
#267 = VERTEX_POINT ( 'NONE', #173 ) ;
#268 = VERTEX_POINT ( 'NONE', #107 ) ;
#269 = ADVANCED_FACE ( 'NONE', ( #209 ), #166, .F. ) ;
#270 = CIRCLE ( 'NONE', #20, 12.56716181665030341 ) ;
#271 = VERTEX_POINT ( 'NONE', #193 ) ;
#272 = ORIENTED_EDGE ( 'NONE', *, *, #266, .F. ) ;
#273 = VERTEX_POINT ( 'NONE', #61 ) ;
#274 = ORIENTED_EDGE ( 'NONE', *, *, #169, .T. ) ;
#275 = DIRECTION ( 'NONE',  ( -0.000000000000000000, -0.000000000000000000, 1.000000000000000000 ) ) ;
#276 = AXIS2_PLACEMENT_3D ( 'NONE', #214, #58, #278 ) ;
#277 = CYLINDRICAL_SURFACE ( 'NONE', #31, 12.69999999999999929 ) ;
#278 = DIRECTION ( 'NONE',  ( 1.000000000000000000, 0.000000000000000000, 0.000000000000000000 ) ) ;
#279 =( LENGTH_UNIT ( ) NAMED_UNIT ( * ) SI_UNIT ( .MILLI., .METRE. ) );
#280 = CARTESIAN_POINT ( 'NONE',  ( 0.000000000000000000, 0.000000000000000000, 18.88594395660922487 ) ) ;
#281 = ORIENTED_EDGE ( 'NONE', *, *, #211, .T. ) ;
#282 = UNCERTAINTY_MEASURE_WITH_UNIT (LENGTH_MEASURE( 1.000000000000000082E-05 ), #238, 'distance_accuracy_value', 'NONE');
ENDSEC;
END-ISO-10303-21;
