ISO-10303-21;
HEADER;
FILE_DESCRIPTION (( 'STEP AP214' ),
    '1' );
FILE_NAME ('GLM5-025B-150.STEP',
    '2024-08-09T03:12:03',
    ( 'Windows User' ),
    ( 'P R C' ),
    'SwSTEP 2.0',
    'SolidWorks 2022',
    '' );
FILE_SCHEMA (( 'AUTOMOTIVE_DESIGN' ));
ENDSEC;

DATA;
#1 = UNCERTAINTY_MEASURE_WITH_UNIT (LENGTH_MEASURE( 1.000000000000000082E-05 ), #52, 'distance_accuracy_value', 'NONE');
#2 = AXIS2_PLACEMENT_3D ( 'NONE', #240, #224, #146 ) ;
#3 = PRODUCT_DEFINITION_CONTEXT ( 'detailed design', #220, 'design' ) ;
#4 = EDGE_CURVE ( 'NONE', #190, #121, #107, .T. ) ;
#5 = CIRCLE ( 'NONE', #163, 78.59999999999998010 ) ;
#6 = ORIENTED_EDGE ( 'NONE', *, *, #196, .F. ) ;
#7 = ADVANCED_FACE ( 'NONE', ( #45 ), #225, .T. ) ;
#8 = ORIENTED_EDGE ( 'NONE', *, *, #177, .T. ) ;
#9 = DIRECTION ( 'NONE',  ( -1.000000000000000000, 1.224646799147353207E-16, 0.000000000000000000 ) ) ;
#10 = VECTOR ( 'NONE', #199, 1000.000000000000000 ) ;
#11 = DIRECTION ( 'NONE',  ( -0.000000000000000000, -0.000000000000000000, 1.000000000000000000 ) ) ;
#12 = SURFACE_STYLE_FILL_AREA ( #189 ) ;
#13 = CARTESIAN_POINT ( 'NONE',  ( 0.000000000000000000, 0.000000000000000000, 42.61456729745161454 ) ) ;
#14 = EDGE_CURVE ( 'NONE', #121, #90, #149, .T. ) ;
#15 = SURFACE_SIDE_STYLE ('',( #12 ) ) ;
#16 = EDGE_LOOP ( 'NONE', ( #18, #184, #271, #8, #205 ) ) ;
#17 = CARTESIAN_POINT ( 'NONE',  ( 12.52797042373248182, 1.544767661420403699E-15, 12.67202957626752102 ) ) ;
#18 = ORIENTED_EDGE ( 'NONE', *, *, #243, .F. ) ;
#19 = CARTESIAN_POINT ( 'NONE',  ( 0.000000000000000000, 0.000000000000000000, 12.67202957626752102 ) ) ;
#20 = CIRCLE ( 'NONE', #186, 12.69999999999999751 ) ;
#21 = AXIS2_PLACEMENT_3D ( 'NONE', #22, #140, #221 ) ;
#22 = CARTESIAN_POINT ( 'NONE',  ( 0.000000000000000000, 0.000000000000000000, 42.61456729745161454 ) ) ;
#23 = LINE ( 'NONE', #103, #10 ) ;
#24 = PRODUCT ( 'GLM5-025B-150', 'GLM5-025B-150', '', ( #257 ) ) ;
#25 = CARTESIAN_POINT ( 'NONE',  ( 0.000000000000000000, 0.000000000000000000, 42.61456729745161454 ) ) ;
#26 = AXIS2_PLACEMENT_3D ( 'NONE', #61, #279, #74 ) ;
#27 = CIRCLE ( 'NONE', #206, 78.59999999999998010 ) ;
#28 = ORIENTED_EDGE ( 'NONE', *, *, #97, .F. ) ;
#29 = CARTESIAN_POINT ( 'NONE',  ( 0.000000000000000000, 0.000000000000000000, 12.67202957626752102 ) ) ;
#30 = FACE_OUTER_BOUND ( 'NONE', #16, .T. ) ;
#31 = ORIENTED_EDGE ( 'NONE', *, *, #77, .F. ) ;
#32 = DIRECTION ( 'NONE',  ( -1.000000000000000000, 0.000000000000000000, 0.000000000000000000 ) ) ;
#33 = ORIENTED_EDGE ( 'NONE', *, *, #229, .F. ) ;
#35 = EDGE_CURVE ( 'NONE', #275, #166, #173, .T. ) ;
#34 = CONICAL_SURFACE ( 'NONE', #57, 12.52797042373248004, 0.7853981633974734811 ) ;
#36 = DIRECTION ( 'NONE',  ( 1.000000000000000000, 0.000000000000000000, 0.000000000000000000 ) ) ;
#37 = SPHERICAL_SURFACE ( 'NONE', #21, 35.00000000000000000 ) ;
#38 =( NAMED_UNIT ( * ) SI_UNIT ( $, .STERADIAN. ) SOLID_ANGLE_UNIT ( ) );
#39 = DIRECTION ( 'NONE',  ( -1.000000000000000000, 0.000000000000000000, 0.000000000000000000 ) ) ;
#40 = DIRECTION ( 'NONE',  ( -0.7071067811865654473, 0.000000000000000000, -0.7071067811865296981 ) ) ;
#41 = DIRECTION ( 'NONE',  ( -0.000000000000000000, -0.000000000000000000, -1.000000000000000000 ) ) ;
#42 = AXIS2_PLACEMENT_3D ( 'NONE', #19, #198, #280 ) ;
#43 = APPLICATION_PROTOCOL_DEFINITION ( 'draft international standard', 'automotive_design', 1998, #220 ) ;
#44 = MANIFOLD_SOLID_BREP ( 'µ¹½Ç1', #142 ) ;
#45 = FACE_OUTER_BOUND ( 'NONE', #159, .T. ) ;
#46 = CIRCLE ( 'NONE', #267, 12.69999999999999929 ) ;
#47 = EDGE_CURVE ( 'NONE', #54, #244, #86, .T. ) ;
#48 = ORIENTED_EDGE ( 'NONE', *, *, #4, .T. ) ;
#49 = DIRECTION ( 'NONE',  ( -0.000000000000000000, -0.000000000000000000, 1.000000000000000000 ) ) ;
#50 = DIRECTION ( 'NONE',  ( 1.000000000000000000, 0.000000000000000000, 0.000000000000000000 ) ) ;
#51 = ORIENTED_EDGE ( 'NONE', *, *, #35, .F. ) ;
#52 =( LENGTH_UNIT ( ) NAMED_UNIT ( * ) SI_UNIT ( .MILLI., .METRE. ) );
#53 = ADVANCED_FACE ( 'NONE', ( #183 ), #34, .T. ) ;
#54 = VERTEX_POINT ( 'NONE', #89 ) ;
#55 = DIRECTION ( 'NONE',  ( 1.000000000000000000, -0.000000000000000000, 0.000000000000000000 ) ) ;
#56 =( NAMED_UNIT ( * ) SI_UNIT ( $, .STERADIAN. ) SOLID_ANGLE_UNIT ( ) );
#57 = AXIS2_PLACEMENT_3D ( 'NONE', #113, #144, #210 ) ;
#58 = STYLED_ITEM ( 'NONE', ( #185 ), #44 ) ;
#59 = CARTESIAN_POINT ( 'NONE',  ( 0.000000000000000000, 0.000000000000000000, 10.00000000000000000 ) ) ;
#60 = DIRECTION ( 'NONE',  ( 0.7071067811865654473, 8.659560562355152260E-17, -0.7071067811865296981 ) ) ;
#61 = CARTESIAN_POINT ( 'NONE',  ( 0.000000000000000000, 0.000000000000000000, 12.67202957626749260 ) ) ;
#62 = CARTESIAN_POINT ( 'NONE',  ( -12.69999999999999929, 0.000000000000000000, 20.00000000000000000 ) ) ;
#63 = COLOUR_RGB ( '',1.000000000000000000, 1.000000000000000000, 1.000000000000000000 ) ;
#64 = EDGE_CURVE ( 'NONE', #75, #166, #87, .T. ) ;
#65 = AXIS2_PLACEMENT_3D ( 'NONE', #114, #162, #233 ) ;
#66 = CONICAL_SURFACE ( 'NONE', #26, 12.52797042373248004, 0.7853981633974734811 ) ;
#67 = CIRCLE ( 'NONE', #65, 12.69999999999999751 ) ;
#68 = ORIENTED_EDGE ( 'NONE', *, *, #161, .F. ) ;
#69 = CARTESIAN_POINT ( 'NONE',  ( 0.000000000000000000, 0.000000000000000000, 42.61456729745161454 ) ) ;
#70 = DIRECTION ( 'NONE',  ( 0.000000000000000000, 1.000000000000000000, 0.000000000000000000 ) ) ;
#71 = AXIS2_PLACEMENT_3D ( 'NONE', #59, #49, #139 ) ;
#72 = STYLED_ITEM ( 'NONE', ( #260 ), #175 ) ;
#73 = FACE_OUTER_BOUND ( 'NONE', #78, .T. ) ;
#74 = DIRECTION ( 'NONE',  ( -1.000000000000000000, 0.000000000000000000, 0.000000000000000000 ) ) ;
#75 = VERTEX_POINT ( 'NONE', #232 ) ;
#76 = CARTESIAN_POINT ( 'NONE',  ( -12.52797042373248182, 0.000000000000000000, 12.67202957626752102 ) ) ;
#77 = EDGE_CURVE ( 'NONE', #90, #211, #256, .T. ) ;
#78 = EDGE_LOOP ( 'NONE', ( #235, #208, #171, #152 ) ) ;
#79 = CARTESIAN_POINT ( 'NONE',  ( 0.000000000000000000, 0.000000000000000000, 12.49999999999998401 ) ) ;
#80 = ORIENTED_EDGE ( 'NONE', *, *, #64, .T. ) ;
#81 = CARTESIAN_POINT ( 'NONE',  ( 0.000000000000000000, 12.69999999999999218, 10.00000000000000178 ) ) ;
#82 = DIRECTION ( 'NONE',  ( -0.000000000000000000, -0.000000000000000000, 1.000000000000000000 ) ) ;
#83 = ADVANCED_FACE ( 'NONE', ( #73 ), #209, .F. ) ;
#84 = DIRECTION ( 'NONE',  ( -0.000000000000000000, -0.000000000000000000, 1.000000000000000000 ) ) ;
#85 = EDGE_CURVE ( 'NONE', #143, #211, #5, .T. ) ;
#86 = CIRCLE ( 'NONE', #178, 12.69999999999999929 ) ;
#87 = CIRCLE ( 'NONE', #249, 35.00000000000000000 ) ;
#88 =( GEOMETRIC_REPRESENTATION_CONTEXT ( 3 ) GLOBAL_UNCERTAINTY_ASSIGNED_CONTEXT ( ( #1 ) ) GLOBAL_UNIT_ASSIGNED_CONTEXT ( ( #52, #160, #120 ) ) REPRESENTATION_CONTEXT ( 'NONE', 'WORKASPACE' ) );
#89 = CARTESIAN_POINT ( 'NONE',  ( -12.69999999999999929, 0.000000000000000000, 12.49999999999998401 ) ) ;
#90 = VERTEX_POINT ( 'NONE', #76 ) ;
#91 = PRODUCT_DEFINITION ( 'Î´Öª', '', #242, #3 ) ;
#92 = CYLINDRICAL_SURFACE ( 'NONE', #231, 12.69999999999999929 ) ;
#93 = VECTOR ( 'NONE', #40, 1000.000000000000000 ) ;
#94 =( NAMED_UNIT ( * ) PLANE_ANGLE_UNIT ( ) SI_UNIT ( $, .RADIAN. ) );
#95 = FACE_OUTER_BOUND ( 'NONE', #254, .T. ) ;
#96 = DIRECTION ( 'NONE',  ( -1.224646799147353207E-16, -1.000000000000000000, 0.000000000000000000 ) ) ;
#97 = EDGE_CURVE ( 'NONE', #143, #121, #27, .T. ) ;
#98 = SURFACE_STYLE_USAGE ( .BOTH. , #15 ) ;
#99 = CARTESIAN_POINT ( 'NONE',  ( -12.52797042373248004, 0.000000000000000000, 12.67202957626749260 ) ) ;
#100 = DIRECTION ( 'NONE',  ( -0.000000000000000000, -0.000000000000000000, -1.000000000000000000 ) ) ;
#101 =( GEOMETRIC_REPRESENTATION_CONTEXT ( 3 ) GLOBAL_UNCERTAINTY_ASSIGNED_CONTEXT ( ( #106 ) ) GLOBAL_UNIT_ASSIGNED_CONTEXT ( ( #207, #94, #38 ) ) REPRESENTATION_CONTEXT ( 'NONE', 'WORKASPACE' ) );
#102 = CARTESIAN_POINT ( 'NONE',  ( -1.534233887923679812E-15, -12.52797042373256531, 12.67202957626752102 ) ) ;
#103 = CARTESIAN_POINT ( 'NONE',  ( 12.69999999999999929, 1.555301434917138433E-15, 20.00000000000000000 ) ) ;
#104 = FACE_OUTER_BOUND ( 'NONE', #132, .T. ) ;
#105 = DIRECTION ( 'NONE',  ( 0.000000000000000000, 1.000000000000000000, 0.000000000000000000 ) ) ;
#106 = UNCERTAINTY_MEASURE_WITH_UNIT (LENGTH_MEASURE( 1.000000000000000082E-05 ), #207, 'distance_accuracy_value', 'NONE');
#107 = CIRCLE ( 'NONE', #223, 12.52797042373248182 ) ;
#108 = EDGE_CURVE ( 'NONE', #75, #118, #245, .T. ) ;
#109 = ORIENTED_EDGE ( 'NONE', *, *, #4, .F. ) ;
#110 = AXIS2_PLACEMENT_3D ( 'NONE', #13, #138, #96 ) ;
#111 = ORIENTED_EDGE ( 'NONE', *, *, #177, .F. ) ;
#112 = DIRECTION ( 'NONE',  ( 1.000000000000000000, 0.000000000000000000, 0.000000000000000000 ) ) ;
#113 = CARTESIAN_POINT ( 'NONE',  ( 0.000000000000000000, 0.000000000000000000, 12.67202957626749260 ) ) ;
#114 = CARTESIAN_POINT ( 'NONE',  ( 0.000000000000000000, 0.000000000000000000, 10.00000000000000000 ) ) ;
#115 = APPLICATION_PROTOCOL_DEFINITION ( 'draft international standard', 'automotive_design', 1998, #204 ) ;
#116 = SURFACE_SIDE_STYLE ('',( #248 ) ) ;
#117 = ORIENTED_EDGE ( 'NONE', *, *, #243, .T. ) ;
#118 = VERTEX_POINT ( 'NONE', #158 ) ;
#119 = SPHERICAL_SURFACE ( 'NONE', #176, 78.59999999999998010 ) ;
#120 =( NAMED_UNIT ( * ) SI_UNIT ( $, .STERADIAN. ) SOLID_ANGLE_UNIT ( ) );
#121 = VERTEX_POINT ( 'NONE', #191 ) ;
#122 = ORIENTED_EDGE ( 'NONE', *, *, #226, .T. ) ;
#123 = CARTESIAN_POINT ( 'NONE',  ( 12.52797042373248004, 1.534233887923668965E-15, 12.67202957626749260 ) ) ;
#124 = CIRCLE ( 'NONE', #2, 12.69999999999999751 ) ;
#125 =( GEOMETRIC_REPRESENTATION_CONTEXT ( 3 ) GLOBAL_UNCERTAINTY_ASSIGNED_CONTEXT ( ( #155 ) ) GLOBAL_UNIT_ASSIGNED_CONTEXT ( ( #164, #192, #56 ) ) REPRESENTATION_CONTEXT ( 'NONE', 'WORKASPACE' ) );
#126 = FACE_OUTER_BOUND ( 'NONE', #251, .T. ) ;
#127 = SHAPE_DEFINITION_REPRESENTATION ( #266, #175 ) ;
#128 = CARTESIAN_POINT ( 'NONE',  ( 0.000000000000000000, 0.000000000000000000, 12.67202957626752102 ) ) ;
#129 = DIRECTION ( 'NONE',  ( -1.000000000000000000, 0.000000000000000000, 0.000000000000000000 ) ) ;
#130 = AXIS2_PLACEMENT_3D ( 'NONE', #141, #272, #70 ) ;
#131 = MECHANICAL_DESIGN_GEOMETRIC_PRESENTATION_REPRESENTATION (  '', ( #58 ), #101 ) ;
#132 = EDGE_LOOP ( 'NONE', ( #215, #33, #31, #247, #137 ) ) ;
#133 = ORIENTED_EDGE ( 'NONE', *, *, #35, .T. ) ;
#134 = SURFACE_STYLE_USAGE ( .BOTH. , #116 ) ;
#135 = VECTOR ( 'NONE', #41, 1000.000000000000000 ) ;
#136 = MECHANICAL_DESIGN_GEOMETRIC_PRESENTATION_REPRESENTATION (  '', ( #72 ), #125 ) ;
#137 = ORIENTED_EDGE ( 'NONE', *, *, #150, .F. ) ;
#138 = DIRECTION ( 'NONE',  ( -1.000000000000000000, 1.224646799147353207E-16, 0.000000000000000000 ) ) ;
#139 = DIRECTION ( 'NONE',  ( 1.000000000000000000, 0.000000000000000000, 0.000000000000000000 ) ) ;
#140 = DIRECTION ( 'NONE',  ( -1.000000000000000000, 0.000000000000000000, 0.000000000000000000 ) ) ;
#141 = CARTESIAN_POINT ( 'NONE',  ( 0.000000000000000000, 0.000000000000000000, 90.26719667488310961 ) ) ;
#142 = CLOSED_SHELL ( 'NONE', ( #53, #188, #269, #282, #148, #7, #83, #264 ) ) ;
#143 = VERTEX_POINT ( 'NONE', #276 ) ;
#144 = DIRECTION ( 'NONE',  ( 0.000000000000000000, 0.000000000000000000, -1.000000000000000000 ) ) ;
#145 = ORIENTED_EDGE ( 'NONE', *, *, #47, .F. ) ;
#146 = DIRECTION ( 'NONE',  ( 1.000000000000000000, 0.000000000000000000, 0.000000000000000000 ) ) ;
#147 = EDGE_CURVE ( 'NONE', #118, #275, #67, .T. ) ;
#148 = ADVANCED_FACE ( 'NONE', ( #30 ), #92, .T. ) ;
#149 = CIRCLE ( 'NONE', #151, 12.52797042373248182 ) ;
#150 = EDGE_CURVE ( 'NONE', #244, #54, #46, .T. ) ;
#151 = AXIS2_PLACEMENT_3D ( 'NONE', #128, #203, #250 ) ;
#152 = ORIENTED_EDGE ( 'NONE', *, *, #77, .T. ) ;
#153 = VERTEX_POINT ( 'NONE', #169 ) ;
#154 = DIRECTION ( 'NONE',  ( 0.000000000000000000, 0.000000000000000000, -1.000000000000000000 ) ) ;
#155 = UNCERTAINTY_MEASURE_WITH_UNIT (LENGTH_MEASURE( 1.000000000000000082E-05 ), #164, 'distance_accuracy_value', 'NONE');
#156 = DIRECTION ( 'NONE',  ( -1.224646799147352961E-16, -1.000000000000000000, 0.000000000000000000 ) ) ;
#157 = CIRCLE ( 'NONE', #42, 12.52797042373248182 ) ;
#158 = CARTESIAN_POINT ( 'NONE',  ( -1.555301434917137841E-15, -12.69999999999999218, 10.00000000000000178 ) ) ;
#159 = EDGE_LOOP ( 'NONE', ( #201, #80, #51, #218 ) ) ;
#160 =( NAMED_UNIT ( * ) PLANE_ANGLE_UNIT ( ) SI_UNIT ( $, .RADIAN. ) );
#161 = EDGE_CURVE ( 'NONE', #54, #153, #222, .T. ) ;
#162 = DIRECTION ( 'NONE',  ( -0.000000000000000000, -0.000000000000000000, 1.000000000000000000 ) ) ;
#163 = AXIS2_PLACEMENT_3D ( 'NONE', #213, #9, #156 ) ;
#164 =( LENGTH_UNIT ( ) NAMED_UNIT ( * ) SI_UNIT ( .MILLI., .METRE. ) );
#165 = ORIENTED_EDGE ( 'NONE', *, *, #212, .F. ) ;
#166 = VERTEX_POINT ( 'NONE', #81 ) ;
#167 = LINE ( 'NONE', #99, #93 ) ;
#168 = DIRECTION ( 'NONE',  ( 1.000000000000000000, 0.000000000000000000, 0.000000000000000000 ) ) ;
#169 = CARTESIAN_POINT ( 'NONE',  ( -12.69999999999999751, 0.000000000000000000, 10.00000000000000000 ) ) ;
#170 = CARTESIAN_POINT ( 'NONE',  ( 0.000000000000000000, 0.000000000000000000, 20.00000000000000000 ) ) ;
#171 = ORIENTED_EDGE ( 'NONE', *, *, #14, .T. ) ;
#172 = DIRECTION ( 'NONE',  ( 0.000000000000000000, 1.000000000000000000, 0.000000000000000000 ) ) ;
#173 = CIRCLE ( 'NONE', #71, 12.69999999999999751 ) ;
#174 = PRESENTATION_LAYER_ASSIGNMENT (  '', '', ( #72 ) ) ;
#175 = ADVANCED_BREP_SHAPE_REPRESENTATION ( 'GLM5-025B-150', ( #44, #227 ), #88 ) ;
#176 = AXIS2_PLACEMENT_3D ( 'NONE', #261, #281, #172 ) ;
#177 = EDGE_CURVE ( 'NONE', #153, #118, #20, .T. ) ;
#178 = AXIS2_PLACEMENT_3D ( 'NONE', #255, #236, #50 ) ;
#179 = AXIS2_PLACEMENT_3D ( 'NONE', #25, #129, #105 ) ;
#180 = ORIENTED_EDGE ( 'NONE', *, *, #85, .T. ) ;
#181 = FILL_AREA_STYLE_COLOUR ( '', #63 ) ;
#182 = ORIENTED_EDGE ( 'NONE', *, *, #229, .T. ) ;
#183 = FACE_OUTER_BOUND ( 'NONE', #230, .T. ) ;
#184 = ORIENTED_EDGE ( 'NONE', *, *, #150, .T. ) ;
#185 = PRESENTATION_STYLE_ASSIGNMENT (( #134 ) ) ;
#186 = AXIS2_PLACEMENT_3D ( 'NONE', #241, #82, #194 ) ;
#187 = CARTESIAN_POINT ( 'NONE',  ( 0.000000000000000000, 0.000000000000000000, 90.26719667488310961 ) ) ;
#188 = ADVANCED_FACE ( 'NONE', ( #126 ), #119, .F. ) ;
#189 = FILL_AREA_STYLE ('',( #214 ) ) ;
#190 = VERTEX_POINT ( 'NONE', #17 ) ;
#191 = CARTESIAN_POINT ( 'NONE',  ( 0.000000000000000000, 12.52797042373256531, 12.67202957626752102 ) ) ;
#192 =( NAMED_UNIT ( * ) PLANE_ANGLE_UNIT ( ) SI_UNIT ( $, .RADIAN. ) );
#193 = EDGE_LOOP ( 'NONE', ( #262, #117, #133, #197, #68 ) ) ;
#194 = DIRECTION ( 'NONE',  ( 1.000000000000000000, 0.000000000000000000, 0.000000000000000000 ) ) ;
#195 = AXIS2_PLACEMENT_3D ( 'NONE', #29, #11, #112 ) ;
#196 = EDGE_CURVE ( 'NONE', #166, #153, #124, .T. ) ;
#197 = ORIENTED_EDGE ( 'NONE', *, *, #196, .T. ) ;
#198 = DIRECTION ( 'NONE',  ( -0.000000000000000000, -0.000000000000000000, 1.000000000000000000 ) ) ;
#199 = DIRECTION ( 'NONE',  ( -0.000000000000000000, -0.000000000000000000, -1.000000000000000000 ) ) ;
#200 = CARTESIAN_POINT ( 'NONE',  ( 12.69999999999999751, 1.555301434917138235E-15, 10.00000000000000000 ) ) ;
#201 = ORIENTED_EDGE ( 'NONE', *, *, #108, .F. ) ;
#202 = PRESENTATION_LAYER_ASSIGNMENT (  '', '', ( #58 ) ) ;
#203 = DIRECTION ( 'NONE',  ( -0.000000000000000000, -0.000000000000000000, 1.000000000000000000 ) ) ;
#204 = APPLICATION_CONTEXT ( 'automotive_design' ) ;
#205 = ORIENTED_EDGE ( 'NONE', *, *, #147, .T. ) ;
#206 = AXIS2_PLACEMENT_3D ( 'NONE', #187, #36, #216 ) ;
#207 =( LENGTH_UNIT ( ) NAMED_UNIT ( * ) SI_UNIT ( .MILLI., .METRE. ) );
#208 = ORIENTED_EDGE ( 'NONE', *, *, #97, .T. ) ;
#209 = SPHERICAL_SURFACE ( 'NONE', #130, 78.59999999999998010 ) ;
#210 = DIRECTION ( 'NONE',  ( -1.000000000000000000, 0.000000000000000000, 0.000000000000000000 ) ) ;
#211 = VERTEX_POINT ( 'NONE', #102 ) ;
#212 = EDGE_CURVE ( 'NONE', #90, #54, #167, .T. ) ;
#213 = CARTESIAN_POINT ( 'NONE',  ( 0.000000000000000000, 0.000000000000000000, 90.26719667488310961 ) ) ;
#214 = FILL_AREA_STYLE_COLOUR ( '', #228 ) ;
#215 = ORIENTED_EDGE ( 'NONE', *, *, #226, .F. ) ;
#216 = DIRECTION ( 'NONE',  ( 0.000000000000000000, 0.000000000000000000, -1.000000000000000000 ) ) ;
#217 = FACE_OUTER_BOUND ( 'NONE', #193, .T. ) ;
#218 = ORIENTED_EDGE ( 'NONE', *, *, #147, .F. ) ;
#219 = DIRECTION ( 'NONE',  ( 0.000000000000000000, 0.000000000000000000, -1.000000000000000000 ) ) ;
#220 = APPLICATION_CONTEXT ( 'automotive_design' ) ;
#221 = DIRECTION ( 'NONE',  ( 0.000000000000000000, 1.000000000000000000, 0.000000000000000000 ) ) ;
#222 = LINE ( 'NONE', #62, #135 ) ;
#223 = AXIS2_PLACEMENT_3D ( 'NONE', #265, #84, #168 ) ;
#224 = DIRECTION ( 'NONE',  ( -0.000000000000000000, -0.000000000000000000, 1.000000000000000000 ) ) ;
#225 = SPHERICAL_SURFACE ( 'NONE', #179, 35.00000000000000000 ) ;
#226 = EDGE_CURVE ( 'NONE', #190, #244, #259, .T. ) ;
#227 = AXIS2_PLACEMENT_3D ( 'NONE', #274, #237, #277 ) ;
#228 = COLOUR_RGB ( '',1.000000000000000000, 1.000000000000000000, 1.000000000000000000 ) ;
#229 = EDGE_CURVE ( 'NONE', #211, #190, #157, .T. ) ;
#230 = EDGE_LOOP ( 'NONE', ( #109, #122, #145, #165, #270 ) ) ;
#231 = AXIS2_PLACEMENT_3D ( 'NONE', #252, #234, #32 ) ;
#232 = CARTESIAN_POINT ( 'NONE',  ( 0.000000000000000000, 2.143131898507868248E-15, 7.614567297451614536 ) ) ;
#233 = DIRECTION ( 'NONE',  ( 1.000000000000000000, 0.000000000000000000, 0.000000000000000000 ) ) ;
#234 = DIRECTION ( 'NONE',  ( -0.000000000000000000, -0.000000000000000000, -1.000000000000000000 ) ) ;
#235 = ORIENTED_EDGE ( 'NONE', *, *, #85, .F. ) ;
#236 = DIRECTION ( 'NONE',  ( 0.000000000000000000, 0.000000000000000000, -1.000000000000000000 ) ) ;
#237 = DIRECTION ( 'NONE',  ( 0.000000000000000000, 0.000000000000000000, 1.000000000000000000 ) ) ;
#238 = PRODUCT_RELATED_PRODUCT_CATEGORY ( 'part', '', ( #24 ) ) ;
#239 = CYLINDRICAL_SURFACE ( 'NONE', #268, 12.69999999999999929 ) ;
#240 = CARTESIAN_POINT ( 'NONE',  ( 0.000000000000000000, 0.000000000000000000, 10.00000000000000000 ) ) ;
#241 = CARTESIAN_POINT ( 'NONE',  ( 0.000000000000000000, 0.000000000000000000, 10.00000000000000000 ) ) ;
#242 = PRODUCT_DEFINITION_FORMATION_WITH_SPECIFIED_SOURCE ( 'ÈÎºÎ', '', #24, .NOT_KNOWN. ) ;
#243 = EDGE_CURVE ( 'NONE', #244, #275, #23, .T. ) ;
#244 = VERTEX_POINT ( 'NONE', #253 ) ;
#245 = CIRCLE ( 'NONE', #110, 35.00000000000000000 ) ;
#246 = ORIENTED_EDGE ( 'NONE', *, *, #108, .T. ) ;
#247 = ORIENTED_EDGE ( 'NONE', *, *, #212, .T. ) ;
#248 = SURFACE_STYLE_FILL_AREA ( #273 ) ;
#249 = AXIS2_PLACEMENT_3D ( 'NONE', #69, #55, #154 ) ;
#250 = DIRECTION ( 'NONE',  ( 1.000000000000000000, 0.000000000000000000, 0.000000000000000000 ) ) ;
#251 = EDGE_LOOP ( 'NONE', ( #28, #180, #182, #48 ) ) ;
#252 = CARTESIAN_POINT ( 'NONE',  ( 0.000000000000000000, 0.000000000000000000, 20.00000000000000000 ) ) ;
#253 = CARTESIAN_POINT ( 'NONE',  ( 12.69999999999999929, 1.555301434917138433E-15, 12.49999999999998401 ) ) ;
#254 = EDGE_LOOP ( 'NONE', ( #258, #246, #111, #6 ) ) ;
#255 = CARTESIAN_POINT ( 'NONE',  ( 0.000000000000000000, 0.000000000000000000, 12.49999999999998401 ) ) ;
#256 = CIRCLE ( 'NONE', #195, 12.52797042373248182 ) ;
#257 = PRODUCT_CONTEXT ( 'NONE', #204, 'mechanical' ) ;
#258 = ORIENTED_EDGE ( 'NONE', *, *, #64, .F. ) ;
#259 = LINE ( 'NONE', #123, #263 ) ;
#260 = PRESENTATION_STYLE_ASSIGNMENT (( #98 ) ) ;
#261 = CARTESIAN_POINT ( 'NONE',  ( 0.000000000000000000, 0.000000000000000000, 90.26719667488310961 ) ) ;
#262 = ORIENTED_EDGE ( 'NONE', *, *, #47, .T. ) ;
#264 = ADVANCED_FACE ( 'NONE', ( #104 ), #66, .T. ) ;
#263 = VECTOR ( 'NONE', #60, 1000.000000000000000 ) ;
#265 = CARTESIAN_POINT ( 'NONE',  ( 0.000000000000000000, 0.000000000000000000, 12.67202957626752102 ) ) ;
#266 = PRODUCT_DEFINITION_SHAPE ( 'NONE', 'NONE',  #91 ) ;
#267 = AXIS2_PLACEMENT_3D ( 'NONE', #79, #219, #278 ) ;
#268 = AXIS2_PLACEMENT_3D ( 'NONE', #170, #100, #39 ) ;
#269 = ADVANCED_FACE ( 'NONE', ( #95 ), #37, .T. ) ;
#270 = ORIENTED_EDGE ( 'NONE', *, *, #14, .F. ) ;
#271 = ORIENTED_EDGE ( 'NONE', *, *, #161, .T. ) ;
#272 = DIRECTION ( 'NONE',  ( -1.000000000000000000, 0.000000000000000000, 0.000000000000000000 ) ) ;
#273 = FILL_AREA_STYLE ('',( #181 ) ) ;
#274 = CARTESIAN_POINT ( 'NONE',  ( 0.000000000000000000, 0.000000000000000000, 0.000000000000000000 ) ) ;
#275 = VERTEX_POINT ( 'NONE', #200 ) ;
#276 = CARTESIAN_POINT ( 'NONE',  ( 0.000000000000000000, 4.812861920649096371E-15, 11.66719667488314016 ) ) ;
#277 = DIRECTION ( 'NONE',  ( 1.000000000000000000, 0.000000000000000000, 0.000000000000000000 ) ) ;
#278 = DIRECTION ( 'NONE',  ( 1.000000000000000000, 0.000000000000000000, 0.000000000000000000 ) ) ;
#279 = DIRECTION ( 'NONE',  ( 0.000000000000000000, 0.000000000000000000, -1.000000000000000000 ) ) ;
#280 = DIRECTION ( 'NONE',  ( 1.000000000000000000, 0.000000000000000000, 0.000000000000000000 ) ) ;
#281 = DIRECTION ( 'NONE',  ( -1.000000000000000000, 0.000000000000000000, 0.000000000000000000 ) ) ;
#282 = ADVANCED_FACE ( 'NONE', ( #217 ), #239, .T. ) ;
ENDSEC;
END-ISO-10303-21;
