ISO-10303-21;
HEADER;
FILE_DESCRIPTION (( 'STEP AP214' ),
    '1' );
FILE_NAME ('155275.STEP',
    '2019-06-25T06:53:22',
    ( 'user' ),
    ( 'Î¢ÈíÖÐ¹ú' ),
    'SwSTEP 2.0',
    'SolidWorks 2016',
    '' );
FILE_SCHEMA (( 'AUTOMOTIVE_DESIGN' ));
ENDSEC;

DATA;
#1 = CARTESIAN_POINT ( 'NONE',  ( -6.926787261426136800, 0.3311626636091308300, 2.048450874898246200 ) ) ;
#2 = DIRECTION ( 'NONE',  ( 1.000000000000000000, 0.0000000000000000000, 0.0000000000000000000 ) ) ;
#3 = VECTOR ( 'NONE', #104, 1000.000000000000000 ) ;
#4 = CARTESIAN_POINT ( 'NONE',  ( -5.250476276120562800, 6.250000000000000900, 6.249999999999996400 ) ) ;
#5 = FILL_AREA_STYLE ('',( #146 ) ) ;
#6 = CARTESIAN_POINT ( 'NONE',  ( -6.666309021706823000, 11.65779233590784300, -3.159376368642016400 ) ) ;
#7 = VERTEX_POINT ( 'NONE', #90 ) ;
#8 = ADVANCED_FACE ( 'NONE', ( #9 ), #202, .T. ) ;
#9 = FACE_OUTER_BOUND ( 'NONE', #32, .T. ) ;
#10 = ORIENTED_EDGE ( 'NONE', *, *, #208, .T. ) ;
#11 = SURFACE_SIDE_STYLE ('',( #53 ) ) ;
#12 = SURFACE_SIDE_STYLE ('',( #101 ) ) ;
#13 = COLOUR_RGB ( '',1.000000000000000000, 1.000000000000000000, 1.000000000000000000 ) ;
#14 = CARTESIAN_POINT ( 'NONE',  ( -5.459893625422312300, 8.299014114466542600, 5.918490719064853200 ) ) ;
#15 = CARTESIAN_POINT ( 'NONE',  ( -6.993285870381851200, 0.2064946678024071300, 1.646585327920581300 ) ) ;
#16 = CARTESIAN_POINT ( 'NONE',  ( -6.157147510294006300, 10.52281526276514100, 4.565681390186662200 ) ) ;
#17 = CARTESIAN_POINT ( 'NONE',  ( -5.382679532399193600, 7.899110676427558700, 6.042741833803604300 ) ) ;
#18 = FACE_OUTER_BOUND ( 'NONE', #58, .T. ) ;
#19 =( LENGTH_UNIT ( ) NAMED_UNIT ( * ) SI_UNIT ( .MILLI., .METRE. ) );
#20 = CARTESIAN_POINT ( 'NONE',  ( -5.978041493248802900, 10.07185372312827800, -4.961825203045016500 ) ) ;
#21 = COLOUR_RGB ( '',1.000000000000000000, 1.000000000000000000, 1.000000000000000000 ) ;
#22 = CARTESIAN_POINT ( 'NONE',  ( -5.250476276120558300, 6.250000000000000000, -6.250000000000003600 ) ) ;
#23 = CARTESIAN_POINT ( 'NONE',  ( -5.278386914885430800, 5.413917552540068500, -6.207656776463229800 ) ) ;
#24 = EDGE_LOOP ( 'NONE', ( #36, #10 ) ) ;
#25 = CARTESIAN_POINT ( 'NONE',  ( -6.333791661782609800, 10.94027423326005500, -4.135742344864687500 ) ) ;
#26 = CARTESIAN_POINT ( 'NONE',  ( -6.666749811402037400, 11.65872843403376200, 3.158035301663770300 ) ) ;
#27 = PRESENTATION_LAYER_ASSIGNMENT (  '', '', ( #201 ) ) ;
#28 = DIRECTION ( 'NONE',  ( 1.000000000000000000, -2.465190328815661300E-032, -2.809739709749206800E-016 ) ) ;
#29 = CYLINDRICAL_SURFACE ( 'NONE', #175, 6.250000000000000000 ) ;
#30 = CARTESIAN_POINT ( 'NONE',  ( -5.382173588977655900, 4.604190173168081700, 6.043549498982984300 ) ) ;
#31 = CARTESIAN_POINT ( 'NONE',  ( -6.334930997911818000, 1.557129979115659000, 4.132804978223435700 ) ) ;
#32 = EDGE_LOOP ( 'NONE', ( #140, #39, #156, #125 ) ) ;
#33 = CARTESIAN_POINT ( 'NONE',  ( -3.254795665148736600, 6.250000000000000000, -4.187859746959030600E-015 ) ) ;
#34 = CARTESIAN_POINT ( 'NONE',  ( -6.927137624997187400, 12.16951770380752300, 2.046815804660947300 ) ) ;
#35 = VERTEX_POINT ( 'NONE', #57 ) ;
#36 = ORIENTED_EDGE ( 'NONE', *, *, #152, .T. ) ;
#37 = DIRECTION ( 'NONE',  ( 1.000000000000000000, -2.465190328815661300E-032, -2.809739709749206800E-016 ) ) ;
#38 = VECTOR ( 'NONE', #67, 1000.000000000000000 ) ;
#39 = ORIENTED_EDGE ( 'NONE', *, *, #129, .T. ) ;
#40 = VERTEX_POINT ( 'NONE', #4 ) ;
#41 =( NAMED_UNIT ( * ) PLANE_ANGLE_UNIT ( ) SI_UNIT ( $, .RADIAN. ) );
#42 = PRODUCT_CONTEXT ( 'NONE', #148, 'mechanical' ) ;
#43 = LINE ( 'NONE', #137, #3 ) ;
#44 = SURFACE_STYLE_USAGE ( .BOTH. , #12 ) ;
#45 = CARTESIAN_POINT ( 'NONE',  ( -6.762594641009232400, 0.6504506649731496300, -2.806224503629176900 ) ) ;
#46 =( NAMED_UNIT ( * ) SI_UNIT ( $, .STERADIAN. ) SOLID_ANGLE_UNIT ( ) );
#47 = MECHANICAL_DESIGN_GEOMETRIC_PRESENTATION_REPRESENTATION (  '', ( #76 ), #110 ) ;
#48 = CARTESIAN_POINT ( 'NONE',  ( -5.278428987823181400, 7.086704730949986900, 6.207593743658923900 ) ) ;
#49 = CARTESIAN_POINT ( 'NONE',  ( -6.448782055419966000, 11.19673214236370200, -3.825294529574924800 ) ) ;
#50 = SURFACE_STYLE_USAGE ( .BOTH. , #11 ) ;
#51 = MANIFOLD_SOLID_BREP ( 'ÇÐ³ý-À­Éì8', #145 ) ;
#52 = DIRECTION ( 'NONE',  ( -3.122502256758253300E-016, 0.0000000000000000000, -1.000000000000000000 ) ) ;
#53 = SURFACE_STYLE_FILL_AREA ( #159 ) ;
#54 = CARTESIAN_POINT ( 'NONE',  ( -6.276283433114673300, 1.691938467766847200, 4.280944463860636000 ) ) ;
#55 = CARTESIAN_POINT ( 'NONE',  ( -7.104874895192624600, 12.50014527621455000, 0.4200850128245955400 ) ) ;
#56 = PRODUCT_DEFINITION_SHAPE ( 'NONE', 'NONE',  #100 ) ;
#57 = CARTESIAN_POINT ( 'NONE',  ( -3.254795665148738000, 6.250000000000000000, -6.250000000000004400 ) ) ;
#58 = EDGE_LOOP ( 'NONE', ( #114, #192 ) ) ;
#59 = FACE_OUTER_BOUND ( 'NONE', #24, .T. ) ;
#60 = ORIENTED_EDGE ( 'NONE', *, *, #120, .T. ) ;
#61 = ADVANCED_FACE ( 'NONE', ( #18 ), #155, .T. ) ;
#62 = CARTESIAN_POINT ( 'NONE',  ( -3.254795665148736600, 6.250000000000000000, -4.187859746959030600E-015 ) ) ;
#63 = CARTESIAN_POINT ( 'NONE',  ( -6.764084296304313100, 0.6475112049084539300, 2.800161727900661600 ) ) ;
#64 =( NAMED_UNIT ( * ) SI_UNIT ( $, .STERADIAN. ) SOLID_ANGLE_UNIT ( ) );
#65 =( GEOMETRIC_REPRESENTATION_CONTEXT ( 3 ) GLOBAL_UNCERTAINTY_ASSIGNED_CONTEXT ( ( #71 ) ) GLOBAL_UNIT_ASSIGNED_CONTEXT ( ( #122, #41, #64 ) ) REPRESENTATION_CONTEXT ( 'NONE', 'WORKASPACE' ) );
#66 = DIRECTION ( 'NONE',  ( 0.0000000000000000000, 0.0000000000000000000, 1.000000000000000000 ) ) ;
#67 = DIRECTION ( 'NONE',  ( 1.000000000000000000, -0.0000000000000000000, -2.775557561562888400E-016 ) ) ;
#68 = CARTESIAN_POINT ( 'NONE',  ( -5.919904162220372100, 9.901500460846051500, 5.076376653011657000 ) ) ;
#69 = CARTESIAN_POINT ( 'NONE',  ( -5.749521215598258900, 3.097832715055717700, 5.412058343099117200 ) ) ;
#70 = CARTESIAN_POINT ( 'NONE',  ( -5.979121091077242800, 10.06441196028915100, 4.955108581570319100 ) ) ;
#71 = UNCERTAINTY_MEASURE_WITH_UNIT (LENGTH_MEASURE( 1.000000000000000100E-005 ), #122, 'distance_accuracy_value', 'NONE');
#72 = CARTESIAN_POINT ( 'NONE',  ( -5.459594672231331100, 4.202453168396809600, -5.918978872617907800 ) ) ;
#73 = CARTESIAN_POINT ( 'NONE',  ( -5.642766120096758300, 9.046734540411396400, 5.604040251765668200 ) ) ;
#74 = CARTESIAN_POINT ( 'NONE',  ( -6.762906629545148500, 11.85015541472452600, -2.804773045332358700 ) ) ;
#75 = SHAPE_DEFINITION_REPRESENTATION ( #56, #143 ) ;
#76 = STYLED_ITEM ( 'NONE', ( #200 ), #51 ) ;
#77 = CARTESIAN_POINT ( 'NONE',  ( -6.096638832237474000, 2.127807067896068500, -4.702160068283264500 ) ) ;
#78 =( NAMED_UNIT ( * ) PLANE_ANGLE_UNIT ( ) SI_UNIT ( $, .RADIAN. ) );
#79 = CARTESIAN_POINT ( 'NONE',  ( -5.278377886560170900, 7.085367786093643300, -6.207663427419976000 ) ) ;
#80 = CARTESIAN_POINT ( 'NONE',  ( -6.992535629861477800, 0.2079030223137213500, -1.651252942608782300 ) ) ;
#81 = UNCERTAINTY_MEASURE_WITH_UNIT (LENGTH_MEASURE( 1.000000000000000100E-005 ), #134, 'distance_accuracy_value', 'NONE');
#82 = CARTESIAN_POINT ( 'NONE',  ( -5.250476276120562800, 6.250000000000000900, 6.249999999999996400 ) ) ;
#83 = CARTESIAN_POINT ( 'NONE',  ( -5.250476276120558300, 6.250000000000000000, -6.250000000000003600 ) ) ;
#84 = CARTESIAN_POINT ( 'NONE',  ( -5.978940051188812000, 2.425706557560040300, 4.959971145832653900 ) ) ;
#85 = CARTESIAN_POINT ( 'NONE',  ( -6.506573622843760100, 1.178609559428097200, 3.658469710382513000 ) ) ;
#86 = PRESENTATION_LAYER_ASSIGNMENT (  '', '', ( #76 ) ) ;
#87 = CARTESIAN_POINT ( 'NONE',  ( -7.081388833127416400, 12.45736930673867700, -0.8387570011572058600 ) ) ;
#88 = MECHANICAL_DESIGN_GEOMETRIC_PRESENTATION_REPRESENTATION (  '', ( #201 ), #65 ) ;
#89 = EDGE_LOOP ( 'NONE', ( #96, #199, #60, #130 ) ) ;
#90 = CARTESIAN_POINT ( 'NONE',  ( -3.254795665148734900, 6.250000000000000900, 6.249999999999996400 ) ) ;
#91 = CARTESIAN_POINT ( 'NONE',  ( -5.250476276120561900, 6.672628851983417600, 6.249999999999995600 ) ) ;
#92 = CARTESIAN_POINT ( 'NONE',  ( -5.978233815975713100, 2.437993573321982400, -4.956953790405027100 ) ) ;
#93 = CARTESIAN_POINT ( 'NONE',  ( -5.278419946752542600, 5.414010793292073100, 6.207600388154979500 ) ) ;
#94 = CARTESIAN_POINT ( 'NONE',  ( -5.382486716071383600, 4.602098153661391000, -6.043050224692351000 ) ) ;
#95 = CARTESIAN_POINT ( 'NONE',  ( -6.451059449906390200, 11.20441288719256300, 3.831621482205686700 ) ) ;
#96 = ORIENTED_EDGE ( 'NONE', *, *, #129, .F. ) ;
#97 = APPLICATION_PROTOCOL_DEFINITION ( 'draft international standard', 'automotive_design', 1998, #148 ) ;
#98 = UNCERTAINTY_MEASURE_WITH_UNIT (LENGTH_MEASURE( 1.000000000000000100E-005 ), #19, 'distance_accuracy_value', 'NONE');
#99 = CARTESIAN_POINT ( 'NONE',  ( -7.104593455815893900, 0.0003707711316962924800, -0.4273336947420594600 ) ) ;
#100 = PRODUCT_DEFINITION ( 'Î´Öª', '', #141, #170 ) ;
#101 = SURFACE_STYLE_FILL_AREA ( #5 ) ;
#102 = EDGE_CURVE ( 'NONE', #174, #40, #154, .T. ) ;
#103 = CARTESIAN_POINT ( 'NONE',  ( -7.081899416810078000, 0.04169354909934586800, 0.8319440811312947000 ) ) ;
#104 = DIRECTION ( 'NONE',  ( 1.000000000000000000, -0.0000000000000000000, -2.775557561562888400E-016 ) ) ;
#105 = CARTESIAN_POINT ( 'NONE',  ( -6.992394377480608500, 12.29183473429228200, -1.652628228226457500 ) ) ;
#106 = LINE ( 'NONE', #163, #38 ) ;
#107 = AXIS2_PLACEMENT_3D ( 'NONE', #133, #66, #2 ) ;
#108 = CARTESIAN_POINT ( 'NONE',  ( -15.95479566514873500, 6.250000000000000000, -6.629016437741622000E-016 ) ) ;
#109 = FACE_OUTER_BOUND ( 'NONE', #89, .T. ) ;
#110 =( GEOMETRIC_REPRESENTATION_CONTEXT ( 3 ) GLOBAL_UNCERTAINTY_ASSIGNED_CONTEXT ( ( #81 ) ) GLOBAL_UNIT_ASSIGNED_CONTEXT ( ( #134, #147, #187 ) ) REPRESENTATION_CONTEXT ( 'NONE', 'WORKASPACE' ) );
#111 = ADVANCED_FACE ( 'NONE', ( #109 ), #29, .T. ) ;
#112 = CARTESIAN_POINT ( 'NONE',  ( -5.458869669037580000, 8.294382299862615300, -5.920204401565583500 ) ) ;
#113 = CARTESIAN_POINT ( 'NONE',  ( -5.250476276120558300, 6.250000000000000000, -6.250000000000003600 ) ) ;
#114 = ORIENTED_EDGE ( 'NONE', *, *, #102, .F. ) ;
#115 = CARTESIAN_POINT ( 'NONE',  ( -6.097621125630513300, 10.37468383044089400, 4.699981165584410400 ) ) ;
#116 = AXIS2_PLACEMENT_3D ( 'NONE', #62, #28, #190 ) ;
#117 = CARTESIAN_POINT ( 'NONE',  ( -7.081192127642946600, 0.04299608278059731400, -0.8406393637362037400 ) ) ;
#118 = CARTESIAN_POINT ( 'NONE',  ( -6.275178718089479800, 10.80548389920312000, -4.283680137787188300 ) ) ;
#119 = PLANE ( 'NONE',  #189 ) ;
#120 = EDGE_CURVE ( 'NONE', #174, #35, #43, .T. ) ;
#121 = CARTESIAN_POINT ( 'NONE',  ( -5.250476276120565400, 5.827371096194954500, 6.249999999999997300 ) ) ;
#122 =( LENGTH_UNIT ( ) NAMED_UNIT ( * ) SI_UNIT ( .MILLI., .METRE. ) );
#123 = CARTESIAN_POINT ( 'NONE',  ( -5.642302731755518300, 9.045281377793166700, -5.604883688647852600 ) ) ;
#124 = CARTESIAN_POINT ( 'NONE',  ( -6.098148339237701200, 10.38151799505694200, -4.706639498793789400 ) ) ;
#125 = ORIENTED_EDGE ( 'NONE', *, *, #120, .F. ) ;
#126 = CARTESIAN_POINT ( 'NONE',  ( -5.642830736702388900, 3.452805043705533100, 5.603949894904300100 ) ) ;
#127 = CARTESIAN_POINT ( 'NONE',  ( -6.333141460586259300, 1.555571232465739600, -4.145381265412385800 ) ) ;
#128 = PRODUCT ( '155275', '155275', '', ( #42 ) ) ;
#129 = EDGE_CURVE ( 'NONE', #40, #7, #106, .T. ) ;
#130 = ORIENTED_EDGE ( 'NONE', *, *, #208, .F. ) ;
#131 = CARTESIAN_POINT ( 'NONE',  ( -6.334283521917224200, 10.94702953518068400, 4.142463138194782100 ) ) ;
#132 = CARTESIAN_POINT ( 'NONE',  ( -7.081702291146031700, 12.45794038382748600, 0.8338494434121637200 ) ) ;
#133 = CARTESIAN_POINT ( 'NONE',  ( 0.0000000000000000000, 0.0000000000000000000, 0.0000000000000000000 ) ) ;
#134 =( LENGTH_UNIT ( ) NAMED_UNIT ( * ) SI_UNIT ( .MILLI., .METRE. ) );
#135 = CARTESIAN_POINT ( 'NONE',  ( -5.748226888576107600, 3.102152536620513200, -5.414381160404835700 ) ) ;
#136 = CARTESIAN_POINT ( 'NONE',  ( -6.926109249231240400, 0.3324384354567659900, -2.052392226161726900 ) ) ;
#137 = CARTESIAN_POINT ( 'NONE',  ( -15.95479566514873500, 6.250000000000000000, -6.250000000000000900 ) ) ;
#138 = CARTESIAN_POINT ( 'NONE',  ( -6.099134301165942200, 2.115986526221827800, 4.704473863860997100 ) ) ;
#139 = CARTESIAN_POINT ( 'NONE',  ( 4.355204334851265500, 12.50000000000000000, 4.286263797015675000E-017 ) ) ;
#140 = ORIENTED_EDGE ( 'NONE', *, *, #102, .T. ) ;
#141 = PRODUCT_DEFINITION_FORMATION_WITH_SPECIFIED_SOURCE ( 'ÈÎºÎ', '', #128, .NOT_KNOWN. ) ;
#142 = CARTESIAN_POINT ( 'NONE',  ( -5.250476276120555700, 6.672311278284252200, -6.250000000000003600 ) ) ;
#143 = ADVANCED_BREP_SHAPE_REPRESENTATION ( '155275', ( #51, #107 ), #185 ) ;
#144 = CARTESIAN_POINT ( 'NONE',  ( -5.748875986422829600, 9.399943347842850000, 5.413185666553829400 ) ) ;
#145 = CLOSED_SHELL ( 'NONE', ( #8, #61, #153, #111 ) ) ;
#146 = FILL_AREA_STYLE_COLOUR ( '', #13 ) ;
#147 =( NAMED_UNIT ( * ) PLANE_ANGLE_UNIT ( ) SI_UNIT ( $, .RADIAN. ) );
#148 = APPLICATION_CONTEXT ( 'automotive_design' ) ;
#149 = CARTESIAN_POINT ( 'NONE',  ( -6.665534226020708900, 0.8437454535826417500, -3.162231989286512100 ) ) ;
#150 = DIRECTION ( 'NONE',  ( 0.0000000000000000000, 0.0000000000000000000, -1.000000000000000000 ) ) ;
#151 = DIRECTION ( 'NONE',  ( 0.0000000000000000000, 0.0000000000000000000, -1.000000000000000000 ) ) ;
#152 = EDGE_CURVE ( 'NONE', #35, #7, #207, .T. ) ;
#153 = ADVANCED_FACE ( 'NONE', ( #59 ), #119, .T. ) ;
#154 = B_SPLINE_CURVE_WITH_KNOTS ( 'NONE', 3,
 ( #22, #142, #79, #197, #112, #123, #206, #20, #124, #118, #25, #49, #160, #6, #74, #181, #105, #87, #191, #55, #132, #168, #34, #158, #26, #95, #131, #16, #115, #70, #68, #144, #73, #14, #17, #48, #91, #182 ),
 .UNSPECIFIED., .F., .F.,
 ( 4, 2, 2, 2, 2, 2, 2, 2, 2, 2, 2, 2, 2, 2, 2, 2, 2, 2, 4 ),
 ( -0.009980076770283865400, -0.008732832506473919500, -0.007485588242663976200, -0.006238343978854032900, -0.004991099715044090500, -0.004367477583139116700, -0.003743855451234142900, -0.002496611187424194400, -0.001249366923614245900, -2.122659804298238100E-006, 0.001245121604005651100, 0.002492365867815597000, 0.003739610131625546400, 0.004986854395435492300, 0.005610476527340471300, 0.006234098659245446800, 0.007481342923055404900, 0.008728587186865356000, 0.009975831450675317500 ),
 .UNSPECIFIED. ) ;
#155 = CYLINDRICAL_SURFACE ( 'NONE', #173, 11.46000000000000300 ) ;
#156 = ORIENTED_EDGE ( 'NONE', *, *, #152, .F. ) ;
#157 = FILL_AREA_STYLE_COLOUR ( '', #21 ) ;
#158 = CARTESIAN_POINT ( 'NONE',  ( -6.763777332980146700, 11.85189281192569100, 2.801596278480507100 ) ) ;
#159 = FILL_AREA_STYLE ('',( #157 ) ) ;
#160 = CARTESIAN_POINT ( 'NONE',  ( -6.505363583346207800, 11.31879924890096400, -3.662051122130918700 ) ) ;
#161 = EDGE_CURVE ( 'NONE', #40, #174, #177, .T. ) ;
#162 = DIRECTION ( 'NONE',  ( -0.0000000000000000000, -1.000000000000000000, -0.0000000000000000000 ) ) ;
#163 = CARTESIAN_POINT ( 'NONE',  ( -15.95479566514873500, 6.250000000000000900, 6.249999999999999100 ) ) ;
#164 = CARTESIAN_POINT ( 'NONE',  ( -15.95479566514873500, 6.250000000000000000, -6.629016437741622000E-016 ) ) ;
#165 = CARTESIAN_POINT ( 'NONE',  ( -5.919072449853554300, 2.600843420697219500, -5.078055534399375400 ) ) ;
#166 = DIRECTION ( 'NONE',  ( -2.775557561562891400E-016, 0.0000000000000000000, -1.000000000000000000 ) ) ;
#167 = CARTESIAN_POINT ( 'NONE',  ( -5.642240918820782300, 3.455169042974426400, -5.604969120678267900 ) ) ;
#168 = CARTESIAN_POINT ( 'NONE',  ( -6.993421790302806900, 12.29375757008045000, 1.645242577108344100 ) ) ;
#169 = CARTESIAN_POINT ( 'NONE',  ( -5.459169640806704700, 4.204142999724874500, 5.919714788952452600 ) ) ;
#170 = PRODUCT_DEFINITION_CONTEXT ( 'detailed design', #196, 'design' ) ;
#171 = DIRECTION ( 'NONE',  ( 1.000000000000000000, -0.0000000000000000000, -2.775557561562888400E-016 ) ) ;
#172 = PRESENTATION_STYLE_ASSIGNMENT (( #44 ) ) ;
#173 = AXIS2_PLACEMENT_3D ( 'NONE', #139, #162, #151 ) ;
#174 = VERTEX_POINT ( 'NONE', #113 ) ;
#175 = AXIS2_PLACEMENT_3D ( 'NONE', #108, #171, #204 ) ;
#176 = APPLICATION_PROTOCOL_DEFINITION ( 'draft international standard', 'automotive_design', 1998, #196 ) ;
#177 = B_SPLINE_CURVE_WITH_KNOTS ( 'NONE', 3,
 ( #82, #121, #93, #30, #169, #126, #69, #84, #138, #54, #31, #203, #85, #178, #63, #1, #15, #103, #188, #99, #117, #80, #136, #45, #149, #193, #127, #179, #77, #92, #165, #135, #167, #72, #94, #23, #180, #83 ),
 .UNSPECIFIED., .F., .F.,
 ( 4, 2, 2, 2, 2, 2, 2, 2, 2, 2, 2, 2, 2, 2, 2, 2, 2, 2, 4 ),
 ( 0.009975831450675317500, 0.01122307586741905200, 0.01247032028416278900, 0.01371756470090652200, 0.01496480911765025500, 0.01558843132602211900, 0.01621205353439398400, 0.01745929795113771900, 0.01870654236788145100, 0.01995378678462518500, 0.02120103120136891700, 0.02244827561811264800, 0.02369552003485638300, 0.02494276445160011800, 0.02556638665997198300, 0.02619000886834384500, 0.02743725328508757700, 0.02868449770183130800, 0.02993174211857503900 ),
 .UNSPECIFIED. ) ;
#178 = CARTESIAN_POINT ( 'NONE',  ( -6.667519049801815500, 0.8397455504942833400, 3.155194650357604900 ) ) ;
#179 = CARTESIAN_POINT ( 'NONE',  ( -6.156121472130516600, 1.979710007133849100, -4.568036799227708200 ) ) ;
#180 = CARTESIAN_POINT ( 'NONE',  ( -5.250476276120553900, 5.827688669933059500, -6.250000000000004400 ) ) ;
#181 = CARTESIAN_POINT ( 'NONE',  ( -6.925762047179879300, 12.16688699950857200, -2.054006022371370800 ) ) ;
#182 = CARTESIAN_POINT ( 'NONE',  ( -5.250476276120562800, 6.250000000000000900, 6.249999999999996400 ) ) ;
#183 = PRODUCT_RELATED_PRODUCT_CATEGORY ( 'part', '', ( #128 ) ) ;
#184 = AXIS2_PLACEMENT_3D ( 'NONE', #33, #37, #166 ) ;
#185 =( GEOMETRIC_REPRESENTATION_CONTEXT ( 3 ) GLOBAL_UNCERTAINTY_ASSIGNED_CONTEXT ( ( #98 ) ) GLOBAL_UNIT_ASSIGNED_CONTEXT ( ( #19, #78, #46 ) ) REPRESENTATION_CONTEXT ( 'NONE', 'WORKASPACE' ) );
#186 = CIRCLE ( 'NONE', #184, 6.250000000000000000 ) ;
#187 =( NAMED_UNIT ( * ) SI_UNIT ( $, .STERADIAN. ) SOLID_ANGLE_UNIT ( ) );
#188 = CARTESIAN_POINT ( 'NONE',  ( -7.104995275417833200, -0.0003660054877649560100, 0.4164185183560450400 ) ) ;
#189 = AXIS2_PLACEMENT_3D ( 'NONE', #194, #195, #52 ) ;
#190 = DIRECTION ( 'NONE',  ( -2.775557561562891400E-016, 0.0000000000000000000, -1.000000000000000000 ) ) ;
#191 = CARTESIAN_POINT ( 'NONE',  ( -7.104716029536482400, 12.49985398013527600, -0.4243967704568363300 ) ) ;
#192 = ORIENTED_EDGE ( 'NONE', *, *, #161, .F. ) ;
#193 = CARTESIAN_POINT ( 'NONE',  ( -6.449843389464832400, 1.298236059915987200, -3.835014114238557400 ) ) ;
#194 = CARTESIAN_POINT ( 'NONE',  ( -3.254795665148738000, 12.50000000000000000, -6.249999999999996400 ) ) ;
#195 = DIRECTION ( 'NONE',  ( 1.000000000000000000, 0.0000000000000000000, -3.122502256758253300E-016 ) ) ;
#196 = APPLICATION_CONTEXT ( 'automotive_design' ) ;
#197 = CARTESIAN_POINT ( 'NONE',  ( -5.381981802872276800, 7.894605363612790000, -6.043856199823634000 ) ) ;
#198 = AXIS2_PLACEMENT_3D ( 'NONE', #164, #205, #150 ) ;
#199 = ORIENTED_EDGE ( 'NONE', *, *, #161, .T. ) ;
#200 = PRESENTATION_STYLE_ASSIGNMENT (( #50 ) ) ;
#201 = STYLED_ITEM ( 'NONE', ( #172 ), #143 ) ;
#202 = CYLINDRICAL_SURFACE ( 'NONE', #198, 6.250000000000000000 ) ;
#203 = CARTESIAN_POINT ( 'NONE',  ( -6.449977525285049800, 1.300657555720745200, 3.821925612855289400 ) ) ;
#204 = DIRECTION ( 'NONE',  ( 0.0000000000000000000, 0.0000000000000000000, -1.000000000000000000 ) ) ;
#205 = DIRECTION ( 'NONE',  ( 1.000000000000000000, -0.0000000000000000000, -2.775557561562888400E-016 ) ) ;
#206 = CARTESIAN_POINT ( 'NONE',  ( -5.748868249604915300, 9.400060210377105800, -5.413261114851299500 ) ) ;
#207 = CIRCLE ( 'NONE', #116, 6.250000000000000000 ) ;
#208 = EDGE_CURVE ( 'NONE', #7, #35, #186, .T. ) ;
ENDSEC;
END-ISO-10303-21;
