ISO-10303-21;
HEADER;
FILE_DESCRIPTION (( 'STEP AP214' ),
    '1' );
FILE_NAME ('155357.STEP',
    '2019-06-28T06:55:39',
    ( 'user' ),
    ( 'Î¢ÈíÖÐ¹ú' ),
    'SwSTEP 2.0',
    'SolidWorks 2016',
    '' );
FILE_SCHEMA (( 'AUTOMOTIVE_DESIGN' ));
ENDSEC;

DATA;
#1 = CIRCLE ( 'NONE', #61, 51.68000000000000000 ) ;
#2 = EDGE_CURVE ( 'NONE', #164, #199, #64, .T. ) ;
#3 = VECTOR ( 'NONE', #108, 1000.000000000000000 ) ;
#4 = PLANE ( 'NONE',  #55 ) ;
#5 = VERTEX_POINT ( 'NONE', #191 ) ;
#6 = DIRECTION ( 'NONE',  ( 0.0000000000000000000, 0.0000000000000000000, 1.000000000000000000 ) ) ;
#7 = STYLED_ITEM ( 'NONE', ( #21 ), #95 ) ;
#8 =( NAMED_UNIT ( * ) PLANE_ANGLE_UNIT ( ) SI_UNIT ( $, .RADIAN. ) );
#9 =( GEOMETRIC_REPRESENTATION_CONTEXT ( 3 ) GLOBAL_UNCERTAINTY_ASSIGNED_CONTEXT ( ( #14 ) ) GLOBAL_UNIT_ASSIGNED_CONTEXT ( ( #120, #195, #181 ) ) REPRESENTATION_CONTEXT ( 'NONE', 'WORKASPACE' ) );
#10 = LINE ( 'NONE', #125, #3 ) ;
#11 = VERTEX_POINT ( 'NONE', #56 ) ;
#12 = UNCERTAINTY_MEASURE_WITH_UNIT (LENGTH_MEASURE( 1.000000000000000100E-005 ), #188, 'distance_accuracy_value', 'NONE');
#13 = FACE_OUTER_BOUND ( 'NONE', #121, .T. ) ;
#14 = UNCERTAINTY_MEASURE_WITH_UNIT (LENGTH_MEASURE( 1.000000000000000100E-005 ), #120, 'distance_accuracy_value', 'NONE');
#15 = AXIS2_PLACEMENT_3D ( 'NONE', #157, #189, #117 ) ;
#16 = DIRECTION ( 'NONE',  ( 1.000000000000000000, -0.0000000000000000000, 8.724388962628916000E-016 ) ) ;
#17 = CARTESIAN_POINT ( 'NONE',  ( 0.0000000000000000000, 40.00000000000000000, 0.0000000000000000000 ) ) ;
#18 = DIRECTION ( 'NONE',  ( 8.724388962628917000E-016, 0.0000000000000000000, -1.000000000000000000 ) ) ;
#19 = CARTESIAN_POINT ( 'NONE',  ( 0.0000000000000000000, 0.0000000000000000000, 0.0000000000000000000 ) ) ;
#20 = PRODUCT_DEFINITION_CONTEXT ( 'detailed design', #144, 'design' ) ;
#21 = PRESENTATION_STYLE_ASSIGNMENT (( #33 ) ) ;
#22 = PLANE ( 'NONE',  #43 ) ;
#23 = LINE ( 'NONE', #179, #116 ) ;
#24 = ORIENTED_EDGE ( 'NONE', *, *, #77, .T. ) ;
#25 = ORIENTED_EDGE ( 'NONE', *, *, #84, .T. ) ;
#26 = AXIS2_PLACEMENT_3D ( 'NONE', #166, #44, #53 ) ;
#27 = CARTESIAN_POINT ( 'NONE',  ( 1.224646799147353300E-015, 40.00000000000000000, 20.00000000000000000 ) ) ;
#28 = PLANE ( 'NONE',  #26 ) ;
#29 = ORIENTED_EDGE ( 'NONE', *, *, #118, .T. ) ;
#30 = VECTOR ( 'NONE', #78, 1000.000000000000000 ) ;
#31 = CARTESIAN_POINT ( 'NONE',  ( -54.67999999999999300, 0.0000000000000000000, 10.00000000000000700 ) ) ;
#32 = CLOSED_SHELL ( 'NONE', ( #36, #39, #114, #92, #46, #105 ) ) ;
#33 = SURFACE_STYLE_USAGE ( .BOTH. , #171 ) ;
#34 = DIRECTION ( 'NONE',  ( -1.000000000000000000, 0.0000000000000000000, 8.724388962628913000E-016 ) ) ;
#35 = LINE ( 'NONE', #185, #122 ) ;
#36 = ADVANCED_FACE ( 'NONE', ( #42 ), #41, .F. ) ;
#37 = CARTESIAN_POINT ( 'NONE',  ( -3.976721999460426800, 40.00000000000000000, 6.938893903907228400E-015 ) ) ;
#38 = PRODUCT_DEFINITION_FORMATION_WITH_SPECIFIED_SOURCE ( 'ÈÎºÎ', '', #40, .NOT_KNOWN. ) ;
#39 = ADVANCED_FACE ( 'NONE', ( #176 ), #196, .F. ) ;
#40 = PRODUCT ( '155357', '155357', '', ( #130 ) ) ;
#41 = PLANE ( 'NONE',  #150 ) ;
#42 = FACE_OUTER_BOUND ( 'NONE', #65, .T. ) ;
#43 = AXIS2_PLACEMENT_3D ( 'NONE', #17, #151, #173 ) ;
#44 = DIRECTION ( 'NONE',  ( 0.0000000000000000000, 1.000000000000000000, 0.0000000000000000000 ) ) ;
#45 = PRESENTATION_LAYER_ASSIGNMENT (  '', '', ( #7 ) ) ;
#46 = ADVANCED_FACE ( 'NONE', ( #163 ), #187, .T. ) ;
#47 = ORIENTED_EDGE ( 'NONE', *, *, #67, .T. ) ;
#48 = ORIENTED_EDGE ( 'NONE', *, *, #153, .T. ) ;
#49 = ORIENTED_EDGE ( 'NONE', *, *, #2, .F. ) ;
#50 = FACE_OUTER_BOUND ( 'NONE', #146, .T. ) ;
#51 = ORIENTED_EDGE ( 'NONE', *, *, #201, .F. ) ;
#52 = CARTESIAN_POINT ( 'NONE',  ( 0.0000000000000000000, 40.00000000000000000, 0.0000000000000000000 ) ) ;
#53 = DIRECTION ( 'NONE',  ( 0.0000000000000000000, -0.0000000000000000000, 1.000000000000000000 ) ) ;
#54 = DIRECTION ( 'NONE',  ( -0.0000000000000000000, -1.000000000000000000, -0.0000000000000000000 ) ) ;
#55 = AXIS2_PLACEMENT_3D ( 'NONE', #97, #18, #93 ) ;
#56 = CARTESIAN_POINT ( 'NONE',  ( 1.224646799147353300E-015, 40.00000000000000000, 20.00000000000000000 ) ) ;
#57 = STYLED_ITEM ( 'NONE', ( #80 ), #99 ) ;
#58 = APPLICATION_PROTOCOL_DEFINITION ( 'draft international standard', 'automotive_design', 1998, #144 ) ;
#59 =( NAMED_UNIT ( * ) SI_UNIT ( $, .STERADIAN. ) SOLID_ANGLE_UNIT ( ) );
#60 = ORIENTED_EDGE ( 'NONE', *, *, #201, .T. ) ;
#61 = AXIS2_PLACEMENT_3D ( 'NONE', #165, #147, #131 ) ;
#62 = VECTOR ( 'NONE', #156, 1000.000000000000000 ) ;
#63 = DIRECTION ( 'NONE',  ( -0.0000000000000000000, -1.000000000000000000, -0.0000000000000000000 ) ) ;
#64 = LINE ( 'NONE', #19, #128 ) ;
#65 = EDGE_LOOP ( 'NONE', ( #178, #203, #204, #24 ) ) ;
#66 = LINE ( 'NONE', #113, #124 ) ;
#67 = EDGE_CURVE ( 'NONE', #5, #198, #35, .T. ) ;
#68 = DIRECTION ( 'NONE',  ( -0.0000000000000000000, -1.000000000000000000, -0.0000000000000000000 ) ) ;
#69 = CARTESIAN_POINT ( 'NONE',  ( 0.0000000000000000000, 0.0000000000000000000, 0.0000000000000000000 ) ) ;
#70 = SHAPE_DEFINITION_REPRESENTATION ( #197, #99 ) ;
#71 = FACE_OUTER_BOUND ( 'NONE', #98, .T. ) ;
#72 = APPLICATION_PROTOCOL_DEFINITION ( 'draft international standard', 'automotive_design', 1998, #73 ) ;
#73 = APPLICATION_CONTEXT ( 'automotive_design' ) ;
#74 = ORIENTED_EDGE ( 'NONE', *, *, #77, .F. ) ;
#75 = ORIENTED_EDGE ( 'NONE', *, *, #2, .T. ) ;
#76 = DIRECTION ( 'NONE',  ( 0.0000000000000000000, 0.0000000000000000000, 1.000000000000000000 ) ) ;
#77 = EDGE_CURVE ( 'NONE', #159, #199, #23, .T. ) ;
#78 = DIRECTION ( 'NONE',  ( -0.0000000000000000000, -1.000000000000000000, -0.0000000000000000000 ) ) ;
#79 = SURFACE_STYLE_FILL_AREA ( #135 ) ;
#80 = PRESENTATION_STYLE_ASSIGNMENT (( #132 ) ) ;
#81 = ORIENTED_EDGE ( 'NONE', *, *, #118, .F. ) ;
#82 = PRODUCT_RELATED_PRODUCT_CATEGORY ( 'part', '', ( #40 ) ) ;
#83 = ORIENTED_EDGE ( 'NONE', *, *, #123, .T. ) ;
#84 = EDGE_CURVE ( 'NONE', #140, #5, #1, .T. ) ;
#85 = CARTESIAN_POINT ( 'NONE',  ( 0.0000000000000000000, 0.0000000000000000000, 0.0000000000000000000 ) ) ;
#86 = DIRECTION ( 'NONE',  ( -6.123233995736766000E-017, -0.0000000000000000000, -1.000000000000000000 ) ) ;
#87 = AXIS2_PLACEMENT_3D ( 'NONE', #31, #169, #6 ) ;
#88 = ORIENTED_EDGE ( 'NONE', *, *, #182, .T. ) ;
#89 = MECHANICAL_DESIGN_GEOMETRIC_PRESENTATION_REPRESENTATION (  '', ( #57 ), #194 ) ;
#90 = CARTESIAN_POINT ( 'NONE',  ( -3.976721999460425900, 0.0000000000000000000, 19.99999999999999600 ) ) ;
#91 = DIRECTION ( 'NONE',  ( 1.000000000000000000, -0.0000000000000000000, 8.724388962628916000E-016 ) ) ;
#92 = ADVANCED_FACE ( 'NONE', ( #50 ), #22, .F. ) ;
#93 = DIRECTION ( 'NONE',  ( -1.000000000000000000, 0.0000000000000000000, -8.724388962628917000E-016 ) ) ;
#94 = VECTOR ( 'NONE', #16, 1000.000000000000000 ) ;
#95 = MANIFOLD_SOLID_BREP ( 'Í¹Ì¨-À­Éì1', #32 ) ;
#96 = AXIS2_PLACEMENT_3D ( 'NONE', #129, #63, #186 ) ;
#97 = CARTESIAN_POINT ( 'NONE',  ( 1.224646799147353300E-015, 40.00000000000000000, 20.00000000000000000 ) ) ;
#98 = EDGE_LOOP ( 'NONE', ( #193, #49, #51, #136 ) ) ;
#99 = ADVANCED_BREP_SHAPE_REPRESENTATION ( '155357', ( #95, #138 ), #9 ) ;
#100 = DIRECTION ( 'NONE',  ( 1.000000000000000000, 0.0000000000000000000, -8.724388962628914000E-016 ) ) ;
#101 = CARTESIAN_POINT ( 'NONE',  ( 1.224646799147353300E-015, 0.0000000000000000000, 20.00000000000000000 ) ) ;
#102 = VECTOR ( 'NONE', #91, 1000.000000000000000 ) ;
#103 = MECHANICAL_DESIGN_GEOMETRIC_PRESENTATION_REPRESENTATION (  '', ( #7 ), #107 ) ;
#104 =( NAMED_UNIT ( * ) SI_UNIT ( $, .STERADIAN. ) SOLID_ANGLE_UNIT ( ) );
#105 = ADVANCED_FACE ( 'NONE', ( #71 ), #28, .F. ) ;
#106 = ORIENTED_EDGE ( 'NONE', *, *, #126, .F. ) ;
#107 =( GEOMETRIC_REPRESENTATION_CONTEXT ( 3 ) GLOBAL_UNCERTAINTY_ASSIGNED_CONTEXT ( ( #12 ) ) GLOBAL_UNIT_ASSIGNED_CONTEXT ( ( #188, #170, #59 ) ) REPRESENTATION_CONTEXT ( 'NONE', 'WORKASPACE' ) );
#108 = DIRECTION ( 'NONE',  ( -6.123233995736766000E-017, -0.0000000000000000000, -1.000000000000000000 ) ) ;
#109 = VECTOR ( 'NONE', #68, 1000.000000000000000 ) ;
#110 = PRODUCT_DEFINITION ( 'Î´Öª', '', #38, #20 ) ;
#111 = SURFACE_SIDE_STYLE ('',( #162 ) ) ;
#112 = EDGE_CURVE ( 'NONE', #159, #140, #66, .T. ) ;
#113 = CARTESIAN_POINT ( 'NONE',  ( 0.0000000000000000000, 40.00000000000000000, 0.0000000000000000000 ) ) ;
#114 = ADVANCED_FACE ( 'NONE', ( #13 ), #4, .F. ) ;
#115 = CARTESIAN_POINT ( 'NONE',  ( 1.224646799147353300E-015, 0.0000000000000000000, 20.00000000000000000 ) ) ;
#116 = VECTOR ( 'NONE', #54, 1000.000000000000000 ) ;
#117 = DIRECTION ( 'NONE',  ( 0.0000000000000000000, -0.0000000000000000000, 1.000000000000000000 ) ) ;
#118 = EDGE_CURVE ( 'NONE', #5, #11, #180, .T. ) ;
#119 = DIRECTION ( 'NONE',  ( 1.000000000000000000, 0.0000000000000000000, 0.0000000000000000000 ) ) ;
#120 =( LENGTH_UNIT ( ) NAMED_UNIT ( * ) SI_UNIT ( .MILLI., .METRE. ) );
#121 = EDGE_LOOP ( 'NONE', ( #60, #106, #81, #47 ) ) ;
#122 = VECTOR ( 'NONE', #183, 1000.000000000000000 ) ;
#123 = EDGE_CURVE ( 'NONE', #140, #161, #158, .T. ) ;
#124 = VECTOR ( 'NONE', #34, 1000.000000000000000 ) ;
#125 = CARTESIAN_POINT ( 'NONE',  ( 0.0000000000000000000, 40.00000000000000000, 0.0000000000000000000 ) ) ;
#126 = EDGE_CURVE ( 'NONE', #11, #164, #149, .T. ) ;
#127 = CARTESIAN_POINT ( 'NONE',  ( 1.224646799147353300E-015, 40.00000000000000000, 20.00000000000000000 ) ) ;
#128 = VECTOR ( 'NONE', #86, 1000.000000000000000 ) ;
#129 = CARTESIAN_POINT ( 'NONE',  ( -54.67999999999999300, 40.00000000000000000, 10.00000000000000700 ) ) ;
#130 = PRODUCT_CONTEXT ( 'NONE', #73, 'mechanical' ) ;
#131 = DIRECTION ( 'NONE',  ( 0.0000000000000000000, 0.0000000000000000000, 1.000000000000000000 ) ) ;
#132 = SURFACE_STYLE_USAGE ( .BOTH. , #111 ) ;
#133 = ORIENTED_EDGE ( 'NONE', *, *, #67, .F. ) ;
#134 = DIRECTION ( 'NONE',  ( 8.724388962628914000E-016, -0.0000000000000000000, 1.000000000000000000 ) ) ;
#135 = FILL_AREA_STYLE ('',( #143 ) ) ;
#136 = ORIENTED_EDGE ( 'NONE', *, *, #182, .F. ) ;
#137 = CARTESIAN_POINT ( 'NONE',  ( -3.976721999460426800, 0.0000000000000000000, 6.938893903907228400E-015 ) ) ;
#138 = AXIS2_PLACEMENT_3D ( 'NONE', #184, #76, #119 ) ;
#139 = LINE ( 'NONE', #115, #94 ) ;
#140 = VERTEX_POINT ( 'NONE', #37 ) ;
#141 = COLOUR_RGB ( '',1.000000000000000000, 1.000000000000000000, 1.000000000000000000 ) ;
#142 = CARTESIAN_POINT ( 'NONE',  ( -3.976721999460426800, 40.00000000000000000, 6.938893903907228400E-015 ) ) ;
#143 = FILL_AREA_STYLE_COLOUR ( '', #141 ) ;
#144 = APPLICATION_CONTEXT ( 'automotive_design' ) ;
#145 = CIRCLE ( 'NONE', #87, 51.68000000000000000 ) ;
#146 = EDGE_LOOP ( 'NONE', ( #75, #74, #190, #172 ) ) ;
#147 = DIRECTION ( 'NONE',  ( -0.0000000000000000000, -1.000000000000000000, -0.0000000000000000000 ) ) ;
#148 = PRESENTATION_LAYER_ASSIGNMENT (  '', '', ( #57 ) ) ;
#149 = LINE ( 'NONE', #127, #30 ) ;
#150 = AXIS2_PLACEMENT_3D ( 'NONE', #52, #134, #100 ) ;
#151 = DIRECTION ( 'NONE',  ( -1.000000000000000000, 0.0000000000000000000, 6.123233995736766000E-017 ) ) ;
#152 = FILL_AREA_STYLE_COLOUR ( '', #160 ) ;
#153 = EDGE_CURVE ( 'NONE', #11, #159, #10, .T. ) ;
#154 = FILL_AREA_STYLE ('',( #152 ) ) ;
#155 = UNCERTAINTY_MEASURE_WITH_UNIT (LENGTH_MEASURE( 1.000000000000000100E-005 ), #167, 'distance_accuracy_value', 'NONE');
#156 = DIRECTION ( 'NONE',  ( -1.000000000000000000, 0.0000000000000000000, 8.724388962628913000E-016 ) ) ;
#157 = CARTESIAN_POINT ( 'NONE',  ( -54.67999999999999300, 40.00000000000000000, 10.00000000000000700 ) ) ;
#158 = LINE ( 'NONE', #142, #109 ) ;
#159 = VERTEX_POINT ( 'NONE', #200 ) ;
#160 = COLOUR_RGB ( '',1.000000000000000000, 1.000000000000000000, 1.000000000000000000 ) ;
#161 = VERTEX_POINT ( 'NONE', #137 ) ;
#162 = SURFACE_STYLE_FILL_AREA ( #154 ) ;
#163 = FACE_OUTER_BOUND ( 'NONE', #175, .T. ) ;
#164 = VERTEX_POINT ( 'NONE', #101 ) ;
#165 = CARTESIAN_POINT ( 'NONE',  ( -54.67999999999999300, 40.00000000000000000, 10.00000000000000700 ) ) ;
#166 = CARTESIAN_POINT ( 'NONE',  ( -54.67999999999999300, 0.0000000000000000000, 10.00000000000000700 ) ) ;
#167 =( LENGTH_UNIT ( ) NAMED_UNIT ( * ) SI_UNIT ( .MILLI., .METRE. ) );
#168 = EDGE_LOOP ( 'NONE', ( #88, #133, #192, #83 ) ) ;
#169 = DIRECTION ( 'NONE',  ( -0.0000000000000000000, -1.000000000000000000, -0.0000000000000000000 ) ) ;
#170 =( NAMED_UNIT ( * ) PLANE_ANGLE_UNIT ( ) SI_UNIT ( $, .RADIAN. ) );
#171 = SURFACE_SIDE_STYLE ('',( #79 ) ) ;
#172 = ORIENTED_EDGE ( 'NONE', *, *, #126, .T. ) ;
#173 = DIRECTION ( 'NONE',  ( 6.123233995736766000E-017, 0.0000000000000000000, 1.000000000000000000 ) ) ;
#174 = EDGE_CURVE ( 'NONE', #199, #161, #177, .T. ) ;
#175 = EDGE_LOOP ( 'NONE', ( #202, #25, #29, #48 ) ) ;
#176 = FACE_OUTER_BOUND ( 'NONE', #168, .T. ) ;
#177 = LINE ( 'NONE', #85, #62 ) ;
#178 = ORIENTED_EDGE ( 'NONE', *, *, #174, .T. ) ;
#179 = CARTESIAN_POINT ( 'NONE',  ( 0.0000000000000000000, 40.00000000000000000, 0.0000000000000000000 ) ) ;
#180 = LINE ( 'NONE', #27, #102 ) ;
#181 =( NAMED_UNIT ( * ) SI_UNIT ( $, .STERADIAN. ) SOLID_ANGLE_UNIT ( ) );
#182 = EDGE_CURVE ( 'NONE', #161, #198, #145, .T. ) ;
#183 = DIRECTION ( 'NONE',  ( -0.0000000000000000000, -1.000000000000000000, -0.0000000000000000000 ) ) ;
#184 = CARTESIAN_POINT ( 'NONE',  ( 0.0000000000000000000, 0.0000000000000000000, 0.0000000000000000000 ) ) ;
#185 = CARTESIAN_POINT ( 'NONE',  ( -3.976721999460425900, 40.00000000000000000, 19.99999999999999600 ) ) ;
#186 = DIRECTION ( 'NONE',  ( 0.0000000000000000000, 0.0000000000000000000, -1.000000000000000000 ) ) ;
#187 = PLANE ( 'NONE',  #15 ) ;
#188 =( LENGTH_UNIT ( ) NAMED_UNIT ( * ) SI_UNIT ( .MILLI., .METRE. ) );
#189 = DIRECTION ( 'NONE',  ( 0.0000000000000000000, 1.000000000000000000, 0.0000000000000000000 ) ) ;
#190 = ORIENTED_EDGE ( 'NONE', *, *, #153, .F. ) ;
#191 = CARTESIAN_POINT ( 'NONE',  ( -3.976721999460425900, 40.00000000000000000, 19.99999999999999600 ) ) ;
#192 = ORIENTED_EDGE ( 'NONE', *, *, #84, .F. ) ;
#193 = ORIENTED_EDGE ( 'NONE', *, *, #174, .F. ) ;
#194 =( GEOMETRIC_REPRESENTATION_CONTEXT ( 3 ) GLOBAL_UNCERTAINTY_ASSIGNED_CONTEXT ( ( #155 ) ) GLOBAL_UNIT_ASSIGNED_CONTEXT ( ( #167, #8, #104 ) ) REPRESENTATION_CONTEXT ( 'NONE', 'WORKASPACE' ) );
#195 =( NAMED_UNIT ( * ) PLANE_ANGLE_UNIT ( ) SI_UNIT ( $, .RADIAN. ) );
#196 = CYLINDRICAL_SURFACE ( 'NONE', #96, 51.68000000000000000 ) ;
#197 = PRODUCT_DEFINITION_SHAPE ( 'NONE', 'NONE',  #110 ) ;
#198 = VERTEX_POINT ( 'NONE', #90 ) ;
#199 = VERTEX_POINT ( 'NONE', #69 ) ;
#200 = CARTESIAN_POINT ( 'NONE',  ( 0.0000000000000000000, 40.00000000000000000, 0.0000000000000000000 ) ) ;
#201 = EDGE_CURVE ( 'NONE', #198, #164, #139, .T. ) ;
#202 = ORIENTED_EDGE ( 'NONE', *, *, #112, .T. ) ;
#203 = ORIENTED_EDGE ( 'NONE', *, *, #123, .F. ) ;
#204 = ORIENTED_EDGE ( 'NONE', *, *, #112, .F. ) ;
ENDSEC;
END-ISO-10303-21;
