ISO-10303-21;
HEADER;
FILE_DESCRIPTION (( 'STEP AP214' ),
    '1' );
FILE_NAME ('155473.STEP',
    '2019-07-03T06:19:17',
    ( 'user' ),
    ( 'Î¢ÈíÖÐ¹ú' ),
    'SwSTEP 2.0',
    'SolidWorks 2016',
    '' );
FILE_SCHEMA (( 'AUTOMOTIVE_DESIGN' ));
ENDSEC;

DATA;
#1 = CARTESIAN_POINT ( 'NONE',  ( 0.0000000000000000000, 10.00000000000000000, 0.0000000000000000000 ) ) ;
#2 =( LENGTH_UNIT ( ) NAMED_UNIT ( * ) SI_UNIT ( .MILLI., .METRE. ) );
#3 = LINE ( 'NONE', #34, #40 ) ;
#4 = ORIENTED_EDGE ( 'NONE', *, *, #111, .T. ) ;
#5 = ORIENTED_EDGE ( 'NONE', *, *, #9, .F. ) ;
#6 = DIRECTION ( 'NONE',  ( -0.0000000000000000000, -1.000000000000000000, -0.0000000000000000000 ) ) ;
#7 = VERTEX_POINT ( 'NONE', #67 ) ;
#8 = ADVANCED_FACE ( 'NONE', ( #106 ), #87, .F. ) ;
#9 = EDGE_CURVE ( 'NONE', #177, #63, #113, .T. ) ;
#10 = CARTESIAN_POINT ( 'NONE',  ( 6.123233995736766300E-016, 0.0000000000000000000, 10.00000000000000000 ) ) ;
#11 = ORIENTED_EDGE ( 'NONE', *, *, #21, .T. ) ;
#12 = EDGE_LOOP ( 'NONE', ( #129, #4, #33, #128 ) ) ;
#13 = DIRECTION ( 'NONE',  ( -0.0000000000000000000, -1.000000000000000000, -0.0000000000000000000 ) ) ;
#14 = CARTESIAN_POINT ( 'NONE',  ( 0.0000000000000000000, 10.00000000000000000, 0.0000000000000000000 ) ) ;
#15 = DIRECTION ( 'NONE',  ( -0.0000000000000000000, -1.000000000000000000, -0.0000000000000000000 ) ) ;
#16 = DIRECTION ( 'NONE',  ( -6.123233995736766000E-017, -0.0000000000000000000, -1.000000000000000000 ) ) ;
#17 = ORIENTED_EDGE ( 'NONE', *, *, #44, .F. ) ;
#18 = CARTESIAN_POINT ( 'NONE',  ( 6.123233995736766300E-016, 10.00000000000000000, 10.00000000000000000 ) ) ;
#19 =( NAMED_UNIT ( * ) SI_UNIT ( $, .STERADIAN. ) SOLID_ANGLE_UNIT ( ) );
#20 = DIRECTION ( 'NONE',  ( -0.0000000000000000000, -1.000000000000000000, -0.0000000000000000000 ) ) ;
#21 = EDGE_CURVE ( 'NONE', #198, #160, #133, .T. ) ;
#22 = DIRECTION ( 'NONE',  ( 0.0000000000000000000, -0.0000000000000000000, 1.000000000000000000 ) ) ;
#23 = EDGE_LOOP ( 'NONE', ( #71, #192, #117, #11 ) ) ;
#24 = SURFACE_STYLE_USAGE ( .BOTH. , #100 ) ;
#25 = CARTESIAN_POINT ( 'NONE',  ( -116.6200000000000000, 0.0000000000000000000, 5.000000000000013300 ) ) ;
#26 = EDGE_LOOP ( 'NONE', ( #172, #148, #86, #57 ) ) ;
#27 = DIRECTION ( 'NONE',  ( -1.000000000000000000, 0.0000000000000000000, -8.224915575553600800E-016 ) ) ;
#28 = UNCERTAINTY_MEASURE_WITH_UNIT (LENGTH_MEASURE( 1.000000000000000100E-005 ), #135, 'distance_accuracy_value', 'NONE');
#29 = PRESENTATION_STYLE_ASSIGNMENT (( #201 ) ) ;
#30 = DIRECTION ( 'NONE',  ( 0.0000000000000000000, 0.0000000000000000000, 1.000000000000000000 ) ) ;
#31 = CARTESIAN_POINT ( 'NONE',  ( -2.109107941646009900, 10.00000000000000000, 10.00000000000000200 ) ) ;
#32 = EDGE_CURVE ( 'NONE', #81, #160, #3, .T. ) ;
#33 = ORIENTED_EDGE ( 'NONE', *, *, #202, .T. ) ;
#34 = CARTESIAN_POINT ( 'NONE',  ( 0.0000000000000000000, 0.0000000000000000000, 0.0000000000000000000 ) ) ;
#35 = PRESENTATION_STYLE_ASSIGNMENT (( #24 ) ) ;
#36 = FACE_OUTER_BOUND ( 'NONE', #146, .T. ) ;
#37 = CARTESIAN_POINT ( 'NONE',  ( 0.0000000000000000000, 0.0000000000000000000, 0.0000000000000000000 ) ) ;
#38 = EDGE_LOOP ( 'NONE', ( #103, #143, #124, #5 ) ) ;
#39 = CARTESIAN_POINT ( 'NONE',  ( 6.123233995736766300E-016, 0.0000000000000000000, 10.00000000000000000 ) ) ;
#40 = VECTOR ( 'NONE', #83, 1000.000000000000000 ) ;
#41 = LINE ( 'NONE', #169, #182 ) ;
#42 = EDGE_CURVE ( 'NONE', #54, #81, #60, .T. ) ;
#43 = VECTOR ( 'NONE', #126, 1000.000000000000000 ) ;
#44 = EDGE_CURVE ( 'NONE', #54, #198, #179, .T. ) ;
#45 = DIRECTION ( 'NONE',  ( 0.0000000000000000000, 0.0000000000000000000, 1.000000000000000000 ) ) ;
#46 = PRODUCT_CONTEXT ( 'NONE', #197, 'mechanical' ) ;
#47 = CARTESIAN_POINT ( 'NONE',  ( -2.109107941645996100, 10.00000000000000000, -1.387778780781445700E-014 ) ) ;
#48 = LINE ( 'NONE', #189, #62 ) ;
#49 = CARTESIAN_POINT ( 'NONE',  ( 0.0000000000000000000, 10.00000000000000000, 0.0000000000000000000 ) ) ;
#50 = EDGE_CURVE ( 'NONE', #160, #177, #48, .T. ) ;
#51 =( NAMED_UNIT ( * ) PLANE_ANGLE_UNIT ( ) SI_UNIT ( $, .RADIAN. ) );
#52 = MECHANICAL_DESIGN_GEOMETRIC_PRESENTATION_REPRESENTATION (  '', ( #144 ), #70 ) ;
#53 = ORIENTED_EDGE ( 'NONE', *, *, #105, .T. ) ;
#54 = VERTEX_POINT ( 'NONE', #99 ) ;
#55 =( NAMED_UNIT ( * ) PLANE_ANGLE_UNIT ( ) SI_UNIT ( $, .RADIAN. ) );
#56 = SHAPE_DEFINITION_REPRESENTATION ( #193, #164 ) ;
#57 = ORIENTED_EDGE ( 'NONE', *, *, #76, .T. ) ;
#58 = DIRECTION ( 'NONE',  ( 0.0000000000000000000, 0.0000000000000000000, 1.000000000000000000 ) ) ;
#59 = ADVANCED_FACE ( 'NONE', ( #68 ), #122, .F. ) ;
#60 = LINE ( 'NONE', #141, #170 ) ;
#61 = APPLICATION_PROTOCOL_DEFINITION ( 'draft international standard', 'automotive_design', 1998, #138 ) ;
#62 = VECTOR ( 'NONE', #155, 1000.000000000000000 ) ;
#63 = VERTEX_POINT ( 'NONE', #145 ) ;
#64 = FILL_AREA_STYLE ('',( #173 ) ) ;
#65 = CARTESIAN_POINT ( 'NONE',  ( -2.109107941646009900, 10.00000000000000000, 10.00000000000000200 ) ) ;
#66 = EDGE_CURVE ( 'NONE', #198, #7, #41, .T. ) ;
#67 = CARTESIAN_POINT ( 'NONE',  ( -2.109107941645996100, 10.00000000000000000, -1.387778780781445700E-014 ) ) ;
#68 = FACE_OUTER_BOUND ( 'NONE', #23, .T. ) ;
#69 = AXIS2_PLACEMENT_3D ( 'NONE', #190, #45, #171 ) ;
#70 =( GEOMETRIC_REPRESENTATION_CONTEXT ( 3 ) GLOBAL_UNCERTAINTY_ASSIGNED_CONTEXT ( ( #28 ) ) GLOBAL_UNIT_ASSIGNED_CONTEXT ( ( #135, #55, #132 ) ) REPRESENTATION_CONTEXT ( 'NONE', 'WORKASPACE' ) );
#71 = ORIENTED_EDGE ( 'NONE', *, *, #50, .T. ) ;
#72 = CARTESIAN_POINT ( 'NONE',  ( -116.6200000000000000, 10.00000000000000000, 5.000000000000013300 ) ) ;
#73 = LINE ( 'NONE', #31, #195 ) ;
#74 = CARTESIAN_POINT ( 'NONE',  ( 0.0000000000000000000, 10.00000000000000000, 0.0000000000000000000 ) ) ;
#75 = ORIENTED_EDGE ( 'NONE', *, *, #42, .T. ) ;
#76 = EDGE_CURVE ( 'NONE', #7, #177, #78, .T. ) ;
#77 = ADVANCED_FACE ( 'NONE', ( #98 ), #127, .F. ) ;
#78 = LINE ( 'NONE', #47, #43 ) ;
#79 = PRODUCT_DEFINITION ( 'Î´Öª', '', #88, #184 ) ;
#80 = AXIS2_PLACEMENT_3D ( 'NONE', #181, #20, #58 ) ;
#81 = VERTEX_POINT ( 'NONE', #10 ) ;
#82 = FILL_AREA_STYLE ('',( #96 ) ) ;
#83 = DIRECTION ( 'NONE',  ( -6.123233995736766000E-017, -0.0000000000000000000, -1.000000000000000000 ) ) ;
#84 = PRODUCT ( '155473', '155473', '', ( #46 ) ) ;
#85 = UNCERTAINTY_MEASURE_WITH_UNIT (LENGTH_MEASURE( 1.000000000000000100E-005 ), #161, 'distance_accuracy_value', 'NONE');
#86 = ORIENTED_EDGE ( 'NONE', *, *, #111, .F. ) ;
#87 = PLANE ( 'NONE',  #108 ) ;
#88 = PRODUCT_DEFINITION_FORMATION_WITH_SPECIFIED_SOURCE ( 'ÈÎºÎ', '', #84, .NOT_KNOWN. ) ;
#89 = EDGE_CURVE ( 'NONE', #186, #63, #73, .T. ) ;
#90 = DIRECTION ( 'NONE',  ( -0.0000000000000000000, -1.000000000000000000, -0.0000000000000000000 ) ) ;
#91 = DIRECTION ( 'NONE',  ( -8.224915575553603800E-016, 0.0000000000000000000, -1.000000000000000000 ) ) ;
#92 = MANIFOLD_SOLID_BREP ( 'Í¹Ì¨-À­Éì1', #204 ) ;
#93 = CARTESIAN_POINT ( 'NONE',  ( 6.123233995736766300E-016, 10.00000000000000000, 10.00000000000000000 ) ) ;
#94 = DIRECTION ( 'NONE',  ( 1.000000000000000000, 0.0000000000000000000, 8.224915575553600800E-016 ) ) ;
#95 = AXIS2_PLACEMENT_3D ( 'NONE', #25, #15, #30 ) ;
#96 = FILL_AREA_STYLE_COLOUR ( '', #151 ) ;
#97 = PRODUCT_RELATED_PRODUCT_CATEGORY ( 'part', '', ( #84 ) ) ;
#98 = FACE_OUTER_BOUND ( 'NONE', #162, .T. ) ;
#99 = CARTESIAN_POINT ( 'NONE',  ( 6.123233995736766300E-016, 10.00000000000000000, 10.00000000000000000 ) ) ;
#100 = SURFACE_SIDE_STYLE ('',( #109 ) ) ;
#101 = SURFACE_SIDE_STYLE ('',( #134 ) ) ;
#102 = ORIENTED_EDGE ( 'NONE', *, *, #202, .F. ) ;
#103 = ORIENTED_EDGE ( 'NONE', *, *, #50, .F. ) ;
#104 = PLANE ( 'NONE',  #139 ) ;
#105 = EDGE_CURVE ( 'NONE', #63, #81, #167, .T. ) ;
#106 = FACE_OUTER_BOUND ( 'NONE', #38, .T. ) ;
#107 =( NAMED_UNIT ( * ) SI_UNIT ( $, .STERADIAN. ) SOLID_ANGLE_UNIT ( ) );
#108 = AXIS2_PLACEMENT_3D ( 'NONE', #114, #168, #22 ) ;
#109 = SURFACE_STYLE_FILL_AREA ( #82 ) ;
#110 = AXIS2_PLACEMENT_3D ( 'NONE', #157, #140, #187 ) ;
#111 = EDGE_CURVE ( 'NONE', #7, #186, #188, .T. ) ;
#112 = COLOUR_RGB ( '',1.000000000000000000, 1.000000000000000000, 1.000000000000000000 ) ;
#113 = CIRCLE ( 'NONE', #95, 114.6200000000000000 ) ;
#114 = CARTESIAN_POINT ( 'NONE',  ( -116.6200000000000000, 0.0000000000000000000, 5.000000000000013300 ) ) ;
#115 = PLANE ( 'NONE',  #120 ) ;
#116 = VECTOR ( 'NONE', #185, 1000.000000000000000 ) ;
#117 = ORIENTED_EDGE ( 'NONE', *, *, #66, .F. ) ;
#118 = FACE_OUTER_BOUND ( 'NONE', #12, .T. ) ;
#119 = DIRECTION ( 'NONE',  ( 0.0000000000000000000, 1.000000000000000000, 0.0000000000000000000 ) ) ;
#120 = AXIS2_PLACEMENT_3D ( 'NONE', #18, #91, #178 ) ;
#121 = CYLINDRICAL_SURFACE ( 'NONE', #110, 114.6200000000000000 ) ;
#122 = PLANE ( 'NONE',  #137 ) ;
#123 = DIRECTION ( 'NONE',  ( 1.000000000000000000, -0.0000000000000000000, -8.224915575553605800E-016 ) ) ;
#124 = ORIENTED_EDGE ( 'NONE', *, *, #105, .F. ) ;
#125 = DIRECTION ( 'NONE',  ( -8.224915575553600800E-016, 0.0000000000000000000, 1.000000000000000000 ) ) ;
#126 = DIRECTION ( 'NONE',  ( -0.0000000000000000000, -1.000000000000000000, -0.0000000000000000000 ) ) ;
#127 = PLANE ( 'NONE',  #154 ) ;
#128 = ORIENTED_EDGE ( 'NONE', *, *, #44, .T. ) ;
#129 = ORIENTED_EDGE ( 'NONE', *, *, #66, .T. ) ;
#130 =( GEOMETRIC_REPRESENTATION_CONTEXT ( 3 ) GLOBAL_UNCERTAINTY_ASSIGNED_CONTEXT ( ( #85 ) ) GLOBAL_UNIT_ASSIGNED_CONTEXT ( ( #161, #142, #107 ) ) REPRESENTATION_CONTEXT ( 'NONE', 'WORKASPACE' ) );
#131 = FACE_OUTER_BOUND ( 'NONE', #26, .T. ) ;
#132 =( NAMED_UNIT ( * ) SI_UNIT ( $, .STERADIAN. ) SOLID_ANGLE_UNIT ( ) );
#133 = LINE ( 'NONE', #74, #166 ) ;
#134 = SURFACE_STYLE_FILL_AREA ( #64 ) ;
#135 =( LENGTH_UNIT ( ) NAMED_UNIT ( * ) SI_UNIT ( .MILLI., .METRE. ) );
#136 = ADVANCED_FACE ( 'NONE', ( #131 ), #121, .F. ) ;
#137 = AXIS2_PLACEMENT_3D ( 'NONE', #152, #125, #94 ) ;
#138 = APPLICATION_CONTEXT ( 'automotive_design' ) ;
#139 = AXIS2_PLACEMENT_3D ( 'NONE', #72, #119, #175 ) ;
#140 = DIRECTION ( 'NONE',  ( -0.0000000000000000000, -1.000000000000000000, -0.0000000000000000000 ) ) ;
#141 = CARTESIAN_POINT ( 'NONE',  ( 6.123233995736766300E-016, 10.00000000000000000, 10.00000000000000000 ) ) ;
#142 =( NAMED_UNIT ( * ) PLANE_ANGLE_UNIT ( ) SI_UNIT ( $, .RADIAN. ) );
#143 = ORIENTED_EDGE ( 'NONE', *, *, #32, .F. ) ;
#144 = STYLED_ITEM ( 'NONE', ( #35 ), #92 ) ;
#145 = CARTESIAN_POINT ( 'NONE',  ( -2.109107941646009900, 0.0000000000000000000, 10.00000000000000200 ) ) ;
#146 = EDGE_LOOP ( 'NONE', ( #53, #153, #102, #203 ) ) ;
#147 = APPLICATION_PROTOCOL_DEFINITION ( 'draft international standard', 'automotive_design', 1998, #197 ) ;
#148 = ORIENTED_EDGE ( 'NONE', *, *, #89, .F. ) ;
#149 = ADVANCED_FACE ( 'NONE', ( #36 ), #115, .F. ) ;
#150 = DIRECTION ( 'NONE',  ( 6.123233995736766000E-017, 0.0000000000000000000, 1.000000000000000000 ) ) ;
#151 = COLOUR_RGB ( '',1.000000000000000000, 1.000000000000000000, 1.000000000000000000 ) ;
#152 = CARTESIAN_POINT ( 'NONE',  ( 0.0000000000000000000, 10.00000000000000000, 0.0000000000000000000 ) ) ;
#153 = ORIENTED_EDGE ( 'NONE', *, *, #42, .F. ) ;
#154 = AXIS2_PLACEMENT_3D ( 'NONE', #1, #200, #150 ) ;
#155 = DIRECTION ( 'NONE',  ( -1.000000000000000000, 0.0000000000000000000, -8.224915575553600800E-016 ) ) ;
#156 = STYLED_ITEM ( 'NONE', ( #29 ), #164 ) ;
#157 = CARTESIAN_POINT ( 'NONE',  ( -116.6200000000000000, 10.00000000000000000, 5.000000000000013300 ) ) ;
#158 = ORIENTED_EDGE ( 'NONE', *, *, #32, .T. ) ;
#159 = ORIENTED_EDGE ( 'NONE', *, *, #21, .F. ) ;
#160 = VERTEX_POINT ( 'NONE', #37 ) ;
#161 =( LENGTH_UNIT ( ) NAMED_UNIT ( * ) SI_UNIT ( .MILLI., .METRE. ) );
#162 = EDGE_LOOP ( 'NONE', ( #158, #159, #17, #75 ) ) ;
#163 = PRESENTATION_LAYER_ASSIGNMENT (  '', '', ( #144 ) ) ;
#164 = ADVANCED_BREP_SHAPE_REPRESENTATION ( '155473', ( #92, #69 ), #130 ) ;
#165 = PRESENTATION_LAYER_ASSIGNMENT (  '', '', ( #156 ) ) ;
#166 = VECTOR ( 'NONE', #90, 1000.000000000000000 ) ;
#167 = LINE ( 'NONE', #39, #196 ) ;
#168 = DIRECTION ( 'NONE',  ( 0.0000000000000000000, 1.000000000000000000, 0.0000000000000000000 ) ) ;
#169 = CARTESIAN_POINT ( 'NONE',  ( 0.0000000000000000000, 10.00000000000000000, 0.0000000000000000000 ) ) ;
#170 = VECTOR ( 'NONE', #6, 1000.000000000000000 ) ;
#171 = DIRECTION ( 'NONE',  ( 1.000000000000000000, 0.0000000000000000000, 0.0000000000000000000 ) ) ;
#172 = ORIENTED_EDGE ( 'NONE', *, *, #9, .T. ) ;
#173 = FILL_AREA_STYLE_COLOUR ( '', #112 ) ;
#174 = MECHANICAL_DESIGN_GEOMETRIC_PRESENTATION_REPRESENTATION (  '', ( #156 ), #191 ) ;
#175 = DIRECTION ( 'NONE',  ( 0.0000000000000000000, -0.0000000000000000000, 1.000000000000000000 ) ) ;
#176 = VECTOR ( 'NONE', #16, 1000.000000000000000 ) ;
#177 = VERTEX_POINT ( 'NONE', #183 ) ;
#178 = DIRECTION ( 'NONE',  ( -1.000000000000000000, 0.0000000000000000000, 8.224915575553603800E-016 ) ) ;
#179 = LINE ( 'NONE', #14, #176 ) ;
#180 = LINE ( 'NONE', #93, #116 ) ;
#181 = CARTESIAN_POINT ( 'NONE',  ( -116.6200000000000000, 10.00000000000000000, 5.000000000000013300 ) ) ;
#182 = VECTOR ( 'NONE', #27, 1000.000000000000000 ) ;
#183 = CARTESIAN_POINT ( 'NONE',  ( -2.109107941645996100, 0.0000000000000000000, -1.387778780781445700E-014 ) ) ;
#184 = PRODUCT_DEFINITION_CONTEXT ( 'detailed design', #138, 'design' ) ;
#185 = DIRECTION ( 'NONE',  ( 1.000000000000000000, -0.0000000000000000000, -8.224915575553605800E-016 ) ) ;
#186 = VERTEX_POINT ( 'NONE', #65 ) ;
#187 = DIRECTION ( 'NONE',  ( 0.0000000000000000000, 0.0000000000000000000, -1.000000000000000000 ) ) ;
#188 = CIRCLE ( 'NONE', #80, 114.6200000000000000 ) ;
#189 = CARTESIAN_POINT ( 'NONE',  ( 0.0000000000000000000, 0.0000000000000000000, 0.0000000000000000000 ) ) ;
#190 = CARTESIAN_POINT ( 'NONE',  ( 0.0000000000000000000, 0.0000000000000000000, 0.0000000000000000000 ) ) ;
#191 =( GEOMETRIC_REPRESENTATION_CONTEXT ( 3 ) GLOBAL_UNCERTAINTY_ASSIGNED_CONTEXT ( ( #194 ) ) GLOBAL_UNIT_ASSIGNED_CONTEXT ( ( #2, #51, #19 ) ) REPRESENTATION_CONTEXT ( 'NONE', 'WORKASPACE' ) );
#192 = ORIENTED_EDGE ( 'NONE', *, *, #76, .F. ) ;
#193 = PRODUCT_DEFINITION_SHAPE ( 'NONE', 'NONE',  #79 ) ;
#194 = UNCERTAINTY_MEASURE_WITH_UNIT (LENGTH_MEASURE( 1.000000000000000100E-005 ), #2, 'distance_accuracy_value', 'NONE');
#195 = VECTOR ( 'NONE', #13, 1000.000000000000000 ) ;
#196 = VECTOR ( 'NONE', #123, 1000.000000000000000 ) ;
#197 = APPLICATION_CONTEXT ( 'automotive_design' ) ;
#198 = VERTEX_POINT ( 'NONE', #49 ) ;
#199 = ADVANCED_FACE ( 'NONE', ( #118 ), #104, .T. ) ;
#200 = DIRECTION ( 'NONE',  ( -1.000000000000000000, 0.0000000000000000000, 6.123233995736766000E-017 ) ) ;
#201 = SURFACE_STYLE_USAGE ( .BOTH. , #101 ) ;
#202 = EDGE_CURVE ( 'NONE', #186, #54, #180, .T. ) ;
#203 = ORIENTED_EDGE ( 'NONE', *, *, #89, .T. ) ;
#204 = CLOSED_SHELL ( 'NONE', ( #59, #136, #149, #77, #199, #8 ) ) ;
ENDSEC;
END-ISO-10303-21;
