ISO-10303-21;
HEADER;
FILE_DESCRIPTION (( 'STEP AP214' ),
    '1' );
FILE_NAME ('155485.STEP',
    '2019-07-04T02:03:38',
    ( 'user' ),
    ( 'Î¢ÈíÖÐ¹ú' ),
    'SwSTEP 2.0',
    'SolidWorks 2016',
    '' );
FILE_SCHEMA (( 'AUTOMOTIVE_DESIGN' ));
ENDSEC;

DATA;
#1 = AXIS2_PLACEMENT_3D ( 'NONE', #100, #11, #85 ) ;
#2 =( GEOMETRIC_REPRESENTATION_CONTEXT ( 3 ) GLOBAL_UNCERTAINTY_ASSIGNED_CONTEXT ( ( #119 ) ) GLOBAL_UNIT_ASSIGNED_CONTEXT ( ( #23, #82, #168 ) ) REPRESENTATION_CONTEXT ( 'NONE', 'WORKASPACE' ) );
#3 = PRESENTATION_STYLE_ASSIGNMENT (( #89 ) ) ;
#4 = PRODUCT_DEFINITION_SHAPE ( 'NONE', 'NONE',  #25 ) ;
#5 =( GEOMETRIC_REPRESENTATION_CONTEXT ( 3 ) GLOBAL_UNCERTAINTY_ASSIGNED_CONTEXT ( ( #137 ) ) GLOBAL_UNIT_ASSIGNED_CONTEXT ( ( #181, #68, #190 ) ) REPRESENTATION_CONTEXT ( 'NONE', 'WORKASPACE' ) );
#6 = FACE_OUTER_BOUND ( 'NONE', #90, .T. ) ;
#7 = DIRECTION ( 'NONE',  ( 1.000000000000000000, 0.0000000000000000000, 0.0000000000000000000 ) ) ;
#8 = APPLICATION_PROTOCOL_DEFINITION ( 'draft international standard', 'automotive_design', 1998, #40 ) ;
#9 = STYLED_ITEM ( 'NONE', ( #56 ), #173 ) ;
#10 = VECTOR ( 'NONE', #107, 1000.000000000000000 ) ;
#11 = DIRECTION ( 'NONE',  ( -0.0000000000000000000, -1.000000000000000000, -0.0000000000000000000 ) ) ;
#12 = SURFACE_STYLE_FILL_AREA ( #172 ) ;
#13 = DIRECTION ( 'NONE',  ( 0.0000000000000000000, 1.000000000000000000, 0.0000000000000000000 ) ) ;
#14 = ORIENTED_EDGE ( 'NONE', *, *, #39, .T. ) ;
#15 = ADVANCED_FACE ( 'NONE', ( #21 ), #150, .F. ) ;
#16 = DIRECTION ( 'NONE',  ( -0.0000000000000000000, -1.000000000000000000, -0.0000000000000000000 ) ) ;
#17 = DIRECTION ( 'NONE',  ( 1.000000000000000000, -0.0000000000000000000, 8.296515508871476500E-016 ) ) ;
#18 = VERTEX_POINT ( 'NONE', #38 ) ;
#19 = ORIENTED_EDGE ( 'NONE', *, *, #31, .F. ) ;
#20 = CARTESIAN_POINT ( 'NONE',  ( 6.123233995736766300E-016, 0.0000000000000000000, 10.00000000000000000 ) ) ;
#21 = FACE_OUTER_BOUND ( 'NONE', #147, .T. ) ;
#22 = DIRECTION ( 'NONE',  ( -1.000000000000000000, 0.0000000000000000000, 6.123233995736766000E-017 ) ) ;
#23 =( LENGTH_UNIT ( ) NAMED_UNIT ( * ) SI_UNIT ( .MILLI., .METRE. ) );
#24 = PRODUCT ( '155485', '155485', '', ( #126 ) ) ;
#25 = PRODUCT_DEFINITION ( 'Î´Öª', '', #43, #176 ) ;
#26 = PLANE ( 'NONE',  #196 ) ;
#27 =( GEOMETRIC_REPRESENTATION_CONTEXT ( 3 ) GLOBAL_UNCERTAINTY_ASSIGNED_CONTEXT ( ( #109 ) ) GLOBAL_UNIT_ASSIGNED_CONTEXT ( ( #203, #193, #135 ) ) REPRESENTATION_CONTEXT ( 'NONE', 'WORKASPACE' ) );
#28 = ORIENTED_EDGE ( 'NONE', *, *, #145, .T. ) ;
#29 = PLANE ( 'NONE',  #180 ) ;
#30 = ORIENTED_EDGE ( 'NONE', *, *, #164, .T. ) ;
#31 = EDGE_CURVE ( 'NONE', #18, #116, #166, .T. ) ;
#32 = DIRECTION ( 'NONE',  ( 8.296515508871474500E-016, -0.0000000000000000000, 1.000000000000000000 ) ) ;
#33 = DIRECTION ( 'NONE',  ( 0.0000000000000000000, 0.0000000000000000000, -1.000000000000000000 ) ) ;
#34 = EDGE_CURVE ( 'NONE', #117, #62, #132, .T. ) ;
#35 = VERTEX_POINT ( 'NONE', #53 ) ;
#36 = EDGE_LOOP ( 'NONE', ( #189, #146, #19, #131 ) ) ;
#37 = EDGE_CURVE ( 'NONE', #35, #18, #171, .T. ) ;
#38 = CARTESIAN_POINT ( 'NONE',  ( -2.090906084755539000, 0.0000000000000000000, 9.999999999999998200 ) ) ;
#39 = EDGE_CURVE ( 'NONE', #194, #18, #91, .T. ) ;
#40 = APPLICATION_CONTEXT ( 'automotive_design' ) ;
#41 = DIRECTION ( 'NONE',  ( 1.000000000000000000, -0.0000000000000000000, 8.296515508871476500E-016 ) ) ;
#42 = FILL_AREA_STYLE_COLOUR ( '', #70 ) ;
#43 = PRODUCT_DEFINITION_FORMATION_WITH_SPECIFIED_SOURCE ( 'ÈÎºÎ', '', #24, .NOT_KNOWN. ) ;
#44 = SURFACE_STYLE_USAGE ( .BOTH. , #156 ) ;
#45 = ADVANCED_FACE ( 'NONE', ( #161 ), #71, .F. ) ;
#46 = CARTESIAN_POINT ( 'NONE',  ( -139.5500000000000100, 20.00000000000000000, 5.000000000000016000 ) ) ;
#47 = ORIENTED_EDGE ( 'NONE', *, *, #154, .T. ) ;
#48 = ORIENTED_EDGE ( 'NONE', *, *, #79, .F. ) ;
#49 = CLOSED_SHELL ( 'NONE', ( #188, #15, #138, #45, #74, #105 ) ) ;
#50 = CARTESIAN_POINT ( 'NONE',  ( -2.090906084755511400, 20.00000000000000000, 2.602085213965210600E-015 ) ) ;
#51 = DIRECTION ( 'NONE',  ( 0.0000000000000000000, 1.000000000000000000, 0.0000000000000000000 ) ) ;
#52 = VECTOR ( 'NONE', #83, 1000.000000000000000 ) ;
#53 = CARTESIAN_POINT ( 'NONE',  ( -2.090906084755539000, 20.00000000000000000, 9.999999999999998200 ) ) ;
#54 = AXIS2_PLACEMENT_3D ( 'NONE', #144, #66, #151 ) ;
#55 = CARTESIAN_POINT ( 'NONE',  ( 6.123233995736766300E-016, 20.00000000000000000, 10.00000000000000000 ) ) ;
#56 = PRESENTATION_STYLE_ASSIGNMENT (( #44 ) ) ;
#57 = LINE ( 'NONE', #88, #163 ) ;
#58 = FACE_OUTER_BOUND ( 'NONE', #120, .T. ) ;
#59 = PLANE ( 'NONE',  #157 ) ;
#60 = ORIENTED_EDGE ( 'NONE', *, *, #154, .F. ) ;
#61 = FILL_AREA_STYLE ('',( #192 ) ) ;
#62 = VERTEX_POINT ( 'NONE', #184 ) ;
#63 = AXIS2_PLACEMENT_3D ( 'NONE', #152, #111, #103 ) ;
#64 = LINE ( 'NONE', #55, #183 ) ;
#65 = APPLICATION_PROTOCOL_DEFINITION ( 'draft international standard', 'automotive_design', 1998, #96 ) ;
#66 = DIRECTION ( 'NONE',  ( 8.296515508871477500E-016, 0.0000000000000000000, -1.000000000000000000 ) ) ;
#67 = CARTESIAN_POINT ( 'NONE',  ( -139.5500000000000100, 20.00000000000000000, 5.000000000000016000 ) ) ;
#68 =( NAMED_UNIT ( * ) PLANE_ANGLE_UNIT ( ) SI_UNIT ( $, .RADIAN. ) );
#69 = DIRECTION ( 'NONE',  ( 0.0000000000000000000, -0.0000000000000000000, 1.000000000000000000 ) ) ;
#70 = COLOUR_RGB ( '',1.000000000000000000, 1.000000000000000000, 1.000000000000000000 ) ;
#71 = PLANE ( 'NONE',  #174 ) ;
#72 = EDGE_LOOP ( 'NONE', ( #28, #60, #162, #201 ) ) ;
#73 = CARTESIAN_POINT ( 'NONE',  ( 0.0000000000000000000, 20.00000000000000000, 0.0000000000000000000 ) ) ;
#74 = ADVANCED_FACE ( 'NONE', ( #139 ), #26, .T. ) ;
#75 = PRESENTATION_LAYER_ASSIGNMENT (  '', '', ( #167 ) ) ;
#76 = ORIENTED_EDGE ( 'NONE', *, *, #108, .T. ) ;
#77 = LINE ( 'NONE', #134, #121 ) ;
#78 = VECTOR ( 'NONE', #87, 1000.000000000000000 ) ;
#79 = EDGE_CURVE ( 'NONE', #124, #194, #187, .T. ) ;
#80 = ORIENTED_EDGE ( 'NONE', *, *, #34, .T. ) ;
#81 = FACE_OUTER_BOUND ( 'NONE', #36, .T. ) ;
#82 =( NAMED_UNIT ( * ) PLANE_ANGLE_UNIT ( ) SI_UNIT ( $, .RADIAN. ) );
#83 = DIRECTION ( 'NONE',  ( -0.0000000000000000000, -1.000000000000000000, -0.0000000000000000000 ) ) ;
#84 = CARTESIAN_POINT ( 'NONE',  ( 6.123233995736766300E-016, 0.0000000000000000000, 10.00000000000000000 ) ) ;
#85 = DIRECTION ( 'NONE',  ( 0.0000000000000000000, 0.0000000000000000000, 1.000000000000000000 ) ) ;
#86 = ORIENTED_EDGE ( 'NONE', *, *, #164, .F. ) ;
#87 = DIRECTION ( 'NONE',  ( -1.000000000000000000, 0.0000000000000000000, 8.296515508871473500E-016 ) ) ;
#88 = CARTESIAN_POINT ( 'NONE',  ( 6.123233995736766300E-016, 20.00000000000000000, 10.00000000000000000 ) ) ;
#89 = SURFACE_STYLE_USAGE ( .BOTH. , #186 ) ;
#90 = EDGE_LOOP ( 'NONE', ( #182, #165, #102, #202 ) ) ;
#91 = CIRCLE ( 'NONE', #63, 137.5500000000000100 ) ;
#92 = CARTESIAN_POINT ( 'NONE',  ( 0.0000000000000000000, 20.00000000000000000, 0.0000000000000000000 ) ) ;
#93 = AXIS2_PLACEMENT_3D ( 'NONE', #178, #195, #7 ) ;
#94 = VECTOR ( 'NONE', #17, 1000.000000000000000 ) ;
#95 = ORIENTED_EDGE ( 'NONE', *, *, #79, .T. ) ;
#96 = APPLICATION_CONTEXT ( 'automotive_design' ) ;
#97 = LINE ( 'NONE', #112, #159 ) ;
#98 = EDGE_CURVE ( 'NONE', #117, #116, #57, .T. ) ;
#99 = CARTESIAN_POINT ( 'NONE',  ( -2.090906084755511400, 20.00000000000000000, 2.602085213965210600E-015 ) ) ;
#100 = CARTESIAN_POINT ( 'NONE',  ( -139.5500000000000100, 20.00000000000000000, 5.000000000000016000 ) ) ;
#101 = VERTEX_POINT ( 'NONE', #153 ) ;
#102 = ORIENTED_EDGE ( 'NONE', *, *, #122, .F. ) ;
#103 = DIRECTION ( 'NONE',  ( 0.0000000000000000000, 0.0000000000000000000, 1.000000000000000000 ) ) ;
#104 = DIRECTION ( 'NONE',  ( 0.0000000000000000000, -0.0000000000000000000, 1.000000000000000000 ) ) ;
#105 = ADVANCED_FACE ( 'NONE', ( #81 ), #29, .F. ) ;
#106 = ORIENTED_EDGE ( 'NONE', *, *, #129, .T. ) ;
#107 = DIRECTION ( 'NONE',  ( -6.123233995736766000E-017, -0.0000000000000000000, -1.000000000000000000 ) ) ;
#108 = EDGE_CURVE ( 'NONE', #101, #194, #114, .T. ) ;
#109 = UNCERTAINTY_MEASURE_WITH_UNIT (LENGTH_MEASURE( 1.000000000000000100E-005 ), #203, 'distance_accuracy_value', 'NONE');
#110 = CARTESIAN_POINT ( 'NONE',  ( 0.0000000000000000000, 0.0000000000000000000, 0.0000000000000000000 ) ) ;
#111 = DIRECTION ( 'NONE',  ( -0.0000000000000000000, -1.000000000000000000, -0.0000000000000000000 ) ) ;
#112 = CARTESIAN_POINT ( 'NONE',  ( 0.0000000000000000000, 20.00000000000000000, 0.0000000000000000000 ) ) ;
#113 = ORIENTED_EDGE ( 'NONE', *, *, #37, .F. ) ;
#114 = LINE ( 'NONE', #110, #78 ) ;
#115 = SURFACE_STYLE_FILL_AREA ( #61 ) ;
#116 = VERTEX_POINT ( 'NONE', #84 ) ;
#117 = VERTEX_POINT ( 'NONE', #125 ) ;
#118 = CARTESIAN_POINT ( 'NONE',  ( -2.090906084755511400, 0.0000000000000000000, 2.602085213965210600E-015 ) ) ;
#119 = UNCERTAINTY_MEASURE_WITH_UNIT (LENGTH_MEASURE( 1.000000000000000100E-005 ), #23, 'distance_accuracy_value', 'NONE');
#120 = EDGE_LOOP ( 'NONE', ( #76, #48, #86, #47 ) ) ;
#121 = VECTOR ( 'NONE', #155, 1000.000000000000000 ) ;
#122 = EDGE_CURVE ( 'NONE', #35, #117, #64, .T. ) ;
#123 = VECTOR ( 'NONE', #133, 1000.000000000000000 ) ;
#124 = VERTEX_POINT ( 'NONE', #99 ) ;
#125 = CARTESIAN_POINT ( 'NONE',  ( 6.123233995736766300E-016, 20.00000000000000000, 10.00000000000000000 ) ) ;
#126 = PRODUCT_CONTEXT ( 'NONE', #96, 'mechanical' ) ;
#127 = DIRECTION ( 'NONE',  ( 1.000000000000000000, 0.0000000000000000000, -8.296515508871474500E-016 ) ) ;
#128 = VECTOR ( 'NONE', #130, 1000.000000000000000 ) ;
#129 = EDGE_CURVE ( 'NONE', #124, #35, #199, .T. ) ;
#130 = DIRECTION ( 'NONE',  ( -0.0000000000000000000, -1.000000000000000000, -0.0000000000000000000 ) ) ;
#131 = ORIENTED_EDGE ( 'NONE', *, *, #39, .F. ) ;
#132 = LINE ( 'NONE', #92, #10 ) ;
#133 = DIRECTION ( 'NONE',  ( -6.123233995736766000E-017, -0.0000000000000000000, -1.000000000000000000 ) ) ;
#134 = CARTESIAN_POINT ( 'NONE',  ( 0.0000000000000000000, 20.00000000000000000, 0.0000000000000000000 ) ) ;
#135 =( NAMED_UNIT ( * ) SI_UNIT ( $, .STERADIAN. ) SOLID_ANGLE_UNIT ( ) );
#136 = DIRECTION ( 'NONE',  ( -1.000000000000000000, 0.0000000000000000000, 8.296515508871473500E-016 ) ) ;
#137 = UNCERTAINTY_MEASURE_WITH_UNIT (LENGTH_MEASURE( 1.000000000000000100E-005 ), #181, 'distance_accuracy_value', 'NONE');
#138 = ADVANCED_FACE ( 'NONE', ( #6 ), #198, .F. ) ;
#139 = FACE_OUTER_BOUND ( 'NONE', #141, .T. ) ;
#140 = PRODUCT_RELATED_PRODUCT_CATEGORY ( 'part', '', ( #24 ) ) ;
#141 = EDGE_LOOP ( 'NONE', ( #30, #106, #142, #80 ) ) ;
#142 = ORIENTED_EDGE ( 'NONE', *, *, #122, .T. ) ;
#143 = PRESENTATION_LAYER_ASSIGNMENT (  '', '', ( #9 ) ) ;
#144 = CARTESIAN_POINT ( 'NONE',  ( 6.123233995736766300E-016, 20.00000000000000000, 10.00000000000000000 ) ) ;
#145 = EDGE_CURVE ( 'NONE', #116, #101, #204, .T. ) ;
#146 = ORIENTED_EDGE ( 'NONE', *, *, #145, .F. ) ;
#147 = EDGE_LOOP ( 'NONE', ( #14, #113, #175, #95 ) ) ;
#148 = CARTESIAN_POINT ( 'NONE',  ( -139.5500000000000100, 0.0000000000000000000, 5.000000000000016000 ) ) ;
#149 = COLOUR_RGB ( '',1.000000000000000000, 1.000000000000000000, 1.000000000000000000 ) ;
#150 = CYLINDRICAL_SURFACE ( 'NONE', #169, 137.5500000000000100 ) ;
#151 = DIRECTION ( 'NONE',  ( -1.000000000000000000, 0.0000000000000000000, -8.296515508871477500E-016 ) ) ;
#152 = CARTESIAN_POINT ( 'NONE',  ( -139.5500000000000100, 0.0000000000000000000, 5.000000000000016000 ) ) ;
#153 = CARTESIAN_POINT ( 'NONE',  ( 0.0000000000000000000, 0.0000000000000000000, 0.0000000000000000000 ) ) ;
#154 = EDGE_CURVE ( 'NONE', #62, #101, #77, .T. ) ;
#155 = DIRECTION ( 'NONE',  ( -0.0000000000000000000, -1.000000000000000000, -0.0000000000000000000 ) ) ;
#156 = SURFACE_SIDE_STYLE ('',( #115 ) ) ;
#157 = AXIS2_PLACEMENT_3D ( 'NONE', #73, #32, #127 ) ;
#158 = SHAPE_DEFINITION_REPRESENTATION ( #4, #173 ) ;
#159 = VECTOR ( 'NONE', #136, 1000.000000000000000 ) ;
#160 = MANIFOLD_SOLID_BREP ( 'Í¹Ì¨-À­Éì1', #49 ) ;
#161 = FACE_OUTER_BOUND ( 'NONE', #72, .T. ) ;
#162 = ORIENTED_EDGE ( 'NONE', *, *, #34, .F. ) ;
#163 = VECTOR ( 'NONE', #179, 1000.000000000000000 ) ;
#164 = EDGE_CURVE ( 'NONE', #62, #124, #97, .T. ) ;
#165 = ORIENTED_EDGE ( 'NONE', *, *, #98, .F. ) ;
#166 = LINE ( 'NONE', #20, #94 ) ;
#167 = STYLED_ITEM ( 'NONE', ( #3 ), #160 ) ;
#168 =( NAMED_UNIT ( * ) SI_UNIT ( $, .STERADIAN. ) SOLID_ANGLE_UNIT ( ) );
#169 = AXIS2_PLACEMENT_3D ( 'NONE', #46, #16, #33 ) ;
#170 = CARTESIAN_POINT ( 'NONE',  ( 0.0000000000000000000, 0.0000000000000000000, 0.0000000000000000000 ) ) ;
#171 = LINE ( 'NONE', #197, #128 ) ;
#172 = FILL_AREA_STYLE ('',( #42 ) ) ;
#173 = ADVANCED_BREP_SHAPE_REPRESENTATION ( '155485', ( #160, #93 ), #2 ) ;
#174 = AXIS2_PLACEMENT_3D ( 'NONE', #200, #22, #191 ) ;
#175 = ORIENTED_EDGE ( 'NONE', *, *, #129, .F. ) ;
#176 = PRODUCT_DEFINITION_CONTEXT ( 'detailed design', #40, 'design' ) ;
#177 = MECHANICAL_DESIGN_GEOMETRIC_PRESENTATION_REPRESENTATION (  '', ( #167 ), #27 ) ;
#178 = CARTESIAN_POINT ( 'NONE',  ( 0.0000000000000000000, 0.0000000000000000000, 0.0000000000000000000 ) ) ;
#179 = DIRECTION ( 'NONE',  ( -0.0000000000000000000, -1.000000000000000000, -0.0000000000000000000 ) ) ;
#180 = AXIS2_PLACEMENT_3D ( 'NONE', #148, #51, #69 ) ;
#181 =( LENGTH_UNIT ( ) NAMED_UNIT ( * ) SI_UNIT ( .MILLI., .METRE. ) );
#182 = ORIENTED_EDGE ( 'NONE', *, *, #31, .T. ) ;
#183 = VECTOR ( 'NONE', #41, 1000.000000000000000 ) ;
#184 = CARTESIAN_POINT ( 'NONE',  ( 0.0000000000000000000, 20.00000000000000000, 0.0000000000000000000 ) ) ;
#185 = MECHANICAL_DESIGN_GEOMETRIC_PRESENTATION_REPRESENTATION (  '', ( #9 ), #5 ) ;
#186 = SURFACE_SIDE_STYLE ('',( #12 ) ) ;
#187 = LINE ( 'NONE', #50, #52 ) ;
#188 = ADVANCED_FACE ( 'NONE', ( #58 ), #59, .F. ) ;
#189 = ORIENTED_EDGE ( 'NONE', *, *, #108, .F. ) ;
#190 =( NAMED_UNIT ( * ) SI_UNIT ( $, .STERADIAN. ) SOLID_ANGLE_UNIT ( ) );
#191 = DIRECTION ( 'NONE',  ( 6.123233995736766000E-017, 0.0000000000000000000, 1.000000000000000000 ) ) ;
#192 = FILL_AREA_STYLE_COLOUR ( '', #149 ) ;
#193 =( NAMED_UNIT ( * ) PLANE_ANGLE_UNIT ( ) SI_UNIT ( $, .RADIAN. ) );
#194 = VERTEX_POINT ( 'NONE', #118 ) ;
#195 = DIRECTION ( 'NONE',  ( 0.0000000000000000000, 0.0000000000000000000, 1.000000000000000000 ) ) ;
#196 = AXIS2_PLACEMENT_3D ( 'NONE', #67, #13, #104 ) ;
#197 = CARTESIAN_POINT ( 'NONE',  ( -2.090906084755539000, 20.00000000000000000, 9.999999999999998200 ) ) ;
#198 = PLANE ( 'NONE',  #54 ) ;
#199 = CIRCLE ( 'NONE', #1, 137.5500000000000100 ) ;
#200 = CARTESIAN_POINT ( 'NONE',  ( 0.0000000000000000000, 20.00000000000000000, 0.0000000000000000000 ) ) ;
#201 = ORIENTED_EDGE ( 'NONE', *, *, #98, .T. ) ;
#202 = ORIENTED_EDGE ( 'NONE', *, *, #37, .T. ) ;
#203 =( LENGTH_UNIT ( ) NAMED_UNIT ( * ) SI_UNIT ( .MILLI., .METRE. ) );
#204 = LINE ( 'NONE', #170, #123 ) ;
ENDSEC;
END-ISO-10303-21;
