ISO-10303-21;
HEADER;
FILE_DESCRIPTION (( 'STEP AP214' ),
    '1' );
FILE_NAME ('155487.STEP',
    '2019-07-04T02:57:31',
    ( 'user' ),
    ( 'Î¢ÈíÖÐ¹ú' ),
    'SwSTEP 2.0',
    'SolidWorks 2016',
    '' );
FILE_SCHEMA (( 'AUTOMOTIVE_DESIGN' ));
ENDSEC;

DATA;
#1 = DIRECTION ( 'NONE',  ( -0.0000000000000000000, -1.000000000000000000, -0.0000000000000000000 ) ) ;
#2 =( NAMED_UNIT ( * ) SI_UNIT ( $, .STERADIAN. ) SOLID_ANGLE_UNIT ( ) );
#3 = ORIENTED_EDGE ( 'NONE', *, *, #136, .F. ) ;
#4 = VECTOR ( 'NONE', #78, 1000.000000000000000 ) ;
#5 =( NAMED_UNIT ( * ) PLANE_ANGLE_UNIT ( ) SI_UNIT ( $, .RADIAN. ) );
#6 = LINE ( 'NONE', #94, #198 ) ;
#7 = PLANE ( 'NONE',  #29 ) ;
#8 = ADVANCED_FACE ( 'NONE', ( #54 ), #24, .F. ) ;
#9 = CARTESIAN_POINT ( 'NONE',  ( 0.0000000000000000000, 30.00000000000000000, 0.0000000000000000000 ) ) ;
#10 = ORIENTED_EDGE ( 'NONE', *, *, #105, .F. ) ;
#11 = PRODUCT_RELATED_PRODUCT_CATEGORY ( 'part', '', ( #104 ) ) ;
#12 = STYLED_ITEM ( 'NONE', ( #66 ), #177 ) ;
#13 = VECTOR ( 'NONE', #14, 1000.000000000000000 ) ;
#14 = DIRECTION ( 'NONE',  ( -1.000000000000000000, 0.0000000000000000000, 1.614989364258507000E-015 ) ) ;
#15 = ORIENTED_EDGE ( 'NONE', *, *, #47, .T. ) ;
#16 =( NAMED_UNIT ( * ) PLANE_ANGLE_UNIT ( ) SI_UNIT ( $, .RADIAN. ) );
#17 = APPLICATION_PROTOCOL_DEFINITION ( 'draft international standard', 'automotive_design', 1998, #178 ) ;
#18 = VECTOR ( 'NONE', #25, 1000.000000000000000 ) ;
#19 = EDGE_LOOP ( 'NONE', ( #182, #52, #91, #67 ) ) ;
#20 = SURFACE_STYLE_USAGE ( .BOTH. , #189 ) ;
#21 = PRODUCT_CONTEXT ( 'NONE', #178, 'mechanical' ) ;
#22 = VERTEX_POINT ( 'NONE', #186 ) ;
#23 = ORIENTED_EDGE ( 'NONE', *, *, #125, .T. ) ;
#24 = PLANE ( 'NONE',  #74 ) ;
#25 = DIRECTION ( 'NONE',  ( -0.0000000000000000000, -1.000000000000000000, -0.0000000000000000000 ) ) ;
#26 = MECHANICAL_DESIGN_GEOMETRIC_PRESENTATION_REPRESENTATION (  '', ( #12 ), #106 ) ;
#27 = ADVANCED_FACE ( 'NONE', ( #146 ), #149, .F. ) ;
#28 = VERTEX_POINT ( 'NONE', #129 ) ;
#29 = AXIS2_PLACEMENT_3D ( 'NONE', #42, #99, #32 ) ;
#30 = LINE ( 'NONE', #119, #46 ) ;
#31 = AXIS2_PLACEMENT_3D ( 'NONE', #143, #44, #72 ) ;
#32 = DIRECTION ( 'NONE',  ( -1.000000000000000000, 0.0000000000000000000, -8.074946821292535000E-016 ) ) ;
#33 = DIRECTION ( 'NONE',  ( -0.0000000000000000000, -1.000000000000000000, -0.0000000000000000000 ) ) ;
#34 = ORIENTED_EDGE ( 'NONE', *, *, #180, .T. ) ;
#35 = ADVANCED_FACE ( 'NONE', ( #110 ), #127, .F. ) ;
#36 = PRODUCT_DEFINITION_FORMATION_WITH_SPECIFIED_SOURCE ( 'ÈÎºÎ', '', #104, .NOT_KNOWN. ) ;
#37 = LINE ( 'NONE', #156, #13 ) ;
#38 = APPLICATION_CONTEXT ( 'automotive_design' ) ;
#39 = CARTESIAN_POINT ( 'NONE',  ( 0.0000000000000000000, 0.0000000000000000000, 0.0000000000000000000 ) ) ;
#40 = LINE ( 'NONE', #176, #107 ) ;
#41 = ADVANCED_FACE ( 'NONE', ( #50 ), #7, .F. ) ;
#42 = CARTESIAN_POINT ( 'NONE',  ( 2.449293598294706500E-015, 30.00000000000000000, 20.00000000000000000 ) ) ;
#43 = DIRECTION ( 'NONE',  ( -1.000000000000000000, 0.0000000000000000000, 1.614989364258507000E-015 ) ) ;
#44 = DIRECTION ( 'NONE',  ( -0.0000000000000000000, -1.000000000000000000, -0.0000000000000000000 ) ) ;
#45 = EDGE_CURVE ( 'NONE', #191, #71, #88, .T. ) ;
#46 = VECTOR ( 'NONE', #201, 1000.000000000000000 ) ;
#47 = EDGE_CURVE ( 'NONE', #191, #147, #37, .T. ) ;
#48 = PRESENTATION_STYLE_ASSIGNMENT (( #204 ) ) ;
#49 = DIRECTION ( 'NONE',  ( 0.0000000000000000000, 1.000000000000000000, 0.0000000000000000000 ) ) ;
#50 = FACE_OUTER_BOUND ( 'NONE', #84, .T. ) ;
#51 = AXIS2_PLACEMENT_3D ( 'NONE', #39, #61, #159 ) ;
#52 = ORIENTED_EDGE ( 'NONE', *, *, #180, .F. ) ;
#53 =( NAMED_UNIT ( * ) SI_UNIT ( $, .STERADIAN. ) SOLID_ANGLE_UNIT ( ) );
#54 = FACE_OUTER_BOUND ( 'NONE', #154, .T. ) ;
#55 = CIRCLE ( 'NONE', #31, 22.92000000000000200 ) ;
#56 = CARTESIAN_POINT ( 'NONE',  ( -4.296557028468785500, 30.00000000000000000, 19.99999999999999600 ) ) ;
#57 = DIRECTION ( 'NONE',  ( 0.0000000000000000000, -0.0000000000000000000, 1.000000000000000000 ) ) ;
#58 = SHAPE_DEFINITION_REPRESENTATION ( #128, #137 ) ;
#59 = FACE_OUTER_BOUND ( 'NONE', #68, .T. ) ;
#60 = CARTESIAN_POINT ( 'NONE',  ( -4.296557028468792600, 0.0000000000000000000, 1.734723475976807100E-015 ) ) ;
#61 = DIRECTION ( 'NONE',  ( 0.0000000000000000000, 0.0000000000000000000, 1.000000000000000000 ) ) ;
#62 = EDGE_CURVE ( 'NONE', #22, #71, #30, .T. ) ;
#63 = VERTEX_POINT ( 'NONE', #60 ) ;
#64 =( GEOMETRIC_REPRESENTATION_CONTEXT ( 3 ) GLOBAL_UNCERTAINTY_ASSIGNED_CONTEXT ( ( #196 ) ) GLOBAL_UNIT_ASSIGNED_CONTEXT ( ( #82, #5, #53 ) ) REPRESENTATION_CONTEXT ( 'NONE', 'WORKASPACE' ) );
#65 = AXIS2_PLACEMENT_3D ( 'NONE', #123, #89, #197 ) ;
#66 = PRESENTATION_STYLE_ASSIGNMENT (( #20 ) ) ;
#67 = ORIENTED_EDGE ( 'NONE', *, *, #45, .T. ) ;
#68 = EDGE_LOOP ( 'NONE', ( #15, #109, #200, #131 ) ) ;
#69 = EDGE_CURVE ( 'NONE', #63, #28, #167, .T. ) ;
#70 = LINE ( 'NONE', #56, #81 ) ;
#71 = VERTEX_POINT ( 'NONE', #134 ) ;
#72 = DIRECTION ( 'NONE',  ( 0.0000000000000000000, 0.0000000000000000000, 1.000000000000000000 ) ) ;
#73 = AXIS2_PLACEMENT_3D ( 'NONE', #83, #185, #138 ) ;
#74 = AXIS2_PLACEMENT_3D ( 'NONE', #151, #188, #163 ) ;
#75 = CARTESIAN_POINT ( 'NONE',  ( -24.92000000000000200, 30.00000000000000000, 10.00000000000000700 ) ) ;
#76 = VECTOR ( 'NONE', #161, 1000.000000000000000 ) ;
#77 = LINE ( 'NONE', #202, #181 ) ;
#78 = DIRECTION ( 'NONE',  ( -1.224646799147353200E-016, -0.0000000000000000000, -1.000000000000000000 ) ) ;
#79 = FACE_OUTER_BOUND ( 'NONE', #101, .T. ) ;
#80 = CARTESIAN_POINT ( 'NONE',  ( -4.296557028468792600, 30.00000000000000000, 1.734723475976807100E-015 ) ) ;
#81 = VECTOR ( 'NONE', #33, 1000.000000000000000 ) ;
#82 =( LENGTH_UNIT ( ) NAMED_UNIT ( * ) SI_UNIT ( .MILLI., .METRE. ) );
#83 = CARTESIAN_POINT ( 'NONE',  ( -24.92000000000000200, 0.0000000000000000000, 10.00000000000000700 ) ) ;
#84 = EDGE_LOOP ( 'NONE', ( #87, #175, #3, #179 ) ) ;
#85 = DIRECTION ( 'NONE',  ( 0.0000000000000000000, 0.0000000000000000000, -1.000000000000000000 ) ) ;
#86 = FILL_AREA_STYLE ('',( #195 ) ) ;
#87 = ORIENTED_EDGE ( 'NONE', *, *, #165, .T. ) ;
#88 = LINE ( 'NONE', #9, #108 ) ;
#89 = DIRECTION ( 'NONE',  ( 1.614989364258507000E-015, -0.0000000000000000000, 1.000000000000000000 ) ) ;
#90 = ORIENTED_EDGE ( 'NONE', *, *, #171, .F. ) ;
#91 = ORIENTED_EDGE ( 'NONE', *, *, #47, .F. ) ;
#92 = EDGE_LOOP ( 'NONE', ( #121, #90, #10, #34 ) ) ;
#93 = LINE ( 'NONE', #141, #4 ) ;
#94 = CARTESIAN_POINT ( 'NONE',  ( 2.449293598294706500E-015, 30.00000000000000000, 20.00000000000000000 ) ) ;
#95 = CARTESIAN_POINT ( 'NONE',  ( 2.449293598294706500E-015, 30.00000000000000000, 20.00000000000000000 ) ) ;
#96 = ORIENTED_EDGE ( 'NONE', *, *, #165, .F. ) ;
#97 =( NAMED_UNIT ( * ) SI_UNIT ( $, .STERADIAN. ) SOLID_ANGLE_UNIT ( ) );
#98 =( NAMED_UNIT ( * ) PLANE_ANGLE_UNIT ( ) SI_UNIT ( $, .RADIAN. ) );
#99 = DIRECTION ( 'NONE',  ( 8.074946821292535000E-016, 0.0000000000000000000, -1.000000000000000000 ) ) ;
#100 = UNCERTAINTY_MEASURE_WITH_UNIT (LENGTH_MEASURE( 1.000000000000000100E-005 ), #124, 'distance_accuracy_value', 'NONE');
#101 = EDGE_LOOP ( 'NONE', ( #187, #139, #96, #173 ) ) ;
#102 = VERTEX_POINT ( 'NONE', #155 ) ;
#103 = DIRECTION ( 'NONE',  ( -0.0000000000000000000, -1.000000000000000000, -0.0000000000000000000 ) ) ;
#104 = PRODUCT ( '155487', '155487', '', ( #21 ) ) ;
#105 = EDGE_CURVE ( 'NONE', #147, #130, #55, .T. ) ;
#106 =( GEOMETRIC_REPRESENTATION_CONTEXT ( 3 ) GLOBAL_UNCERTAINTY_ASSIGNED_CONTEXT ( ( #170 ) ) GLOBAL_UNIT_ASSIGNED_CONTEXT ( ( #144, #16, #2 ) ) REPRESENTATION_CONTEXT ( 'NONE', 'WORKASPACE' ) );
#107 = VECTOR ( 'NONE', #126, 1000.000000000000000 ) ;
#108 = VECTOR ( 'NONE', #103, 1000.000000000000000 ) ;
#109 = ORIENTED_EDGE ( 'NONE', *, *, #105, .T. ) ;
#110 = FACE_OUTER_BOUND ( 'NONE', #92, .T. ) ;
#111 = LINE ( 'NONE', #172, #18 ) ;
#112 = DIRECTION ( 'NONE',  ( 0.0000000000000000000, -0.0000000000000000000, 1.000000000000000000 ) ) ;
#113 = EDGE_CURVE ( 'NONE', #71, #63, #77, .T. ) ;
#114 = COLOUR_RGB ( '',1.000000000000000000, 1.000000000000000000, 1.000000000000000000 ) ;
#115 = ADVANCED_FACE ( 'NONE', ( #59 ), #160, .T. ) ;
#116 = STYLED_ITEM ( 'NONE', ( #48 ), #137 ) ;
#117 = CLOSED_SHELL ( 'NONE', ( #27, #35, #41, #8, #115, #164 ) ) ;
#118 = AXIS2_PLACEMENT_3D ( 'NONE', #75, #1, #85 ) ;
#119 = CARTESIAN_POINT ( 'NONE',  ( 0.0000000000000000000, 0.0000000000000000000, 0.0000000000000000000 ) ) ;
#120 = SURFACE_STYLE_FILL_AREA ( #194 ) ;
#121 = ORIENTED_EDGE ( 'NONE', *, *, #69, .T. ) ;
#122 = CARTESIAN_POINT ( 'NONE',  ( -24.92000000000000200, 30.00000000000000000, 10.00000000000000700 ) ) ;
#123 = CARTESIAN_POINT ( 'NONE',  ( 0.0000000000000000000, 30.00000000000000000, 0.0000000000000000000 ) ) ;
#124 =( LENGTH_UNIT ( ) NAMED_UNIT ( * ) SI_UNIT ( .MILLI., .METRE. ) );
#125 = EDGE_CURVE ( 'NONE', #102, #22, #6, .T. ) ;
#126 = DIRECTION ( 'NONE',  ( 1.000000000000000000, -0.0000000000000000000, 8.074946821292535000E-016 ) ) ;
#127 = CYLINDRICAL_SURFACE ( 'NONE', #118, 22.92000000000000200 ) ;
#128 = PRODUCT_DEFINITION_SHAPE ( 'NONE', 'NONE',  #132 ) ;
#129 = CARTESIAN_POINT ( 'NONE',  ( -4.296557028468785500, 0.0000000000000000000, 19.99999999999999600 ) ) ;
#130 = VERTEX_POINT ( 'NONE', #150 ) ;
#131 = ORIENTED_EDGE ( 'NONE', *, *, #183, .T. ) ;
#132 = PRODUCT_DEFINITION ( 'Î´Öª', '', #36, #142 ) ;
#133 = LINE ( 'NONE', #95, #76 ) ;
#134 = CARTESIAN_POINT ( 'NONE',  ( 0.0000000000000000000, 0.0000000000000000000, 0.0000000000000000000 ) ) ;
#135 = APPLICATION_PROTOCOL_DEFINITION ( 'draft international standard', 'automotive_design', 1998, #38 ) ;
#136 = EDGE_CURVE ( 'NONE', #130, #102, #133, .T. ) ;
#137 = ADVANCED_BREP_SHAPE_REPRESENTATION ( '155487', ( #177, #51 ), #158 ) ;
#138 = DIRECTION ( 'NONE',  ( 0.0000000000000000000, 0.0000000000000000000, 1.000000000000000000 ) ) ;
#139 = ORIENTED_EDGE ( 'NONE', *, *, #62, .F. ) ;
#140 = ORIENTED_EDGE ( 'NONE', *, *, #183, .F. ) ;
#141 = CARTESIAN_POINT ( 'NONE',  ( 0.0000000000000000000, 30.00000000000000000, 0.0000000000000000000 ) ) ;
#142 = PRODUCT_DEFINITION_CONTEXT ( 'detailed design', #38, 'design' ) ;
#143 = CARTESIAN_POINT ( 'NONE',  ( -24.92000000000000200, 30.00000000000000000, 10.00000000000000700 ) ) ;
#144 =( LENGTH_UNIT ( ) NAMED_UNIT ( * ) SI_UNIT ( .MILLI., .METRE. ) );
#145 = CARTESIAN_POINT ( 'NONE',  ( 0.0000000000000000000, 30.00000000000000000, 0.0000000000000000000 ) ) ;
#146 = FACE_OUTER_BOUND ( 'NONE', #19, .T. ) ;
#147 = VERTEX_POINT ( 'NONE', #80 ) ;
#148 = MECHANICAL_DESIGN_GEOMETRIC_PRESENTATION_REPRESENTATION (  '', ( #116 ), #64 ) ;
#149 = PLANE ( 'NONE',  #65 ) ;
#150 = CARTESIAN_POINT ( 'NONE',  ( -4.296557028468785500, 30.00000000000000000, 19.99999999999999600 ) ) ;
#151 = CARTESIAN_POINT ( 'NONE',  ( 0.0000000000000000000, 30.00000000000000000, 0.0000000000000000000 ) ) ;
#152 = AXIS2_PLACEMENT_3D ( 'NONE', #157, #169, #112 ) ;
#153 = SURFACE_STYLE_FILL_AREA ( #86 ) ;
#154 = EDGE_LOOP ( 'NONE', ( #166, #174, #140, #23 ) ) ;
#155 = CARTESIAN_POINT ( 'NONE',  ( 2.449293598294706500E-015, 30.00000000000000000, 20.00000000000000000 ) ) ;
#156 = CARTESIAN_POINT ( 'NONE',  ( 0.0000000000000000000, 30.00000000000000000, 0.0000000000000000000 ) ) ;
#157 = CARTESIAN_POINT ( 'NONE',  ( -24.92000000000000200, 0.0000000000000000000, 10.00000000000000700 ) ) ;
#158 =( GEOMETRIC_REPRESENTATION_CONTEXT ( 3 ) GLOBAL_UNCERTAINTY_ASSIGNED_CONTEXT ( ( #100 ) ) GLOBAL_UNIT_ASSIGNED_CONTEXT ( ( #124, #98, #97 ) ) REPRESENTATION_CONTEXT ( 'NONE', 'WORKASPACE' ) );
#159 = DIRECTION ( 'NONE',  ( 1.000000000000000000, 0.0000000000000000000, 0.0000000000000000000 ) ) ;
#160 = PLANE ( 'NONE',  #203 ) ;
#161 = DIRECTION ( 'NONE',  ( 1.000000000000000000, -0.0000000000000000000, 8.074946821292535000E-016 ) ) ;
#162 = PLANE ( 'NONE',  #152 ) ;
#163 = DIRECTION ( 'NONE',  ( 1.224646799147353200E-016, 0.0000000000000000000, 1.000000000000000000 ) ) ;
#164 = ADVANCED_FACE ( 'NONE', ( #79 ), #162, .F. ) ;
#165 = EDGE_CURVE ( 'NONE', #28, #22, #40, .T. ) ;
#166 = ORIENTED_EDGE ( 'NONE', *, *, #62, .T. ) ;
#167 = CIRCLE ( 'NONE', #73, 22.92000000000000200 ) ;
#168 = PRESENTATION_LAYER_ASSIGNMENT (  '', '', ( #12 ) ) ;
#169 = DIRECTION ( 'NONE',  ( 0.0000000000000000000, 1.000000000000000000, 0.0000000000000000000 ) ) ;
#170 = UNCERTAINTY_MEASURE_WITH_UNIT (LENGTH_MEASURE( 1.000000000000000100E-005 ), #144, 'distance_accuracy_value', 'NONE');
#171 = EDGE_CURVE ( 'NONE', #130, #28, #70, .T. ) ;
#172 = CARTESIAN_POINT ( 'NONE',  ( -4.296557028468792600, 30.00000000000000000, 1.734723475976807100E-015 ) ) ;
#173 = ORIENTED_EDGE ( 'NONE', *, *, #69, .F. ) ;
#174 = ORIENTED_EDGE ( 'NONE', *, *, #45, .F. ) ;
#175 = ORIENTED_EDGE ( 'NONE', *, *, #125, .F. ) ;
#176 = CARTESIAN_POINT ( 'NONE',  ( 2.449293598294706500E-015, 0.0000000000000000000, 20.00000000000000000 ) ) ;
#177 = MANIFOLD_SOLID_BREP ( 'Í¹Ì¨-À­Éì1', #117 ) ;
#178 = APPLICATION_CONTEXT ( 'automotive_design' ) ;
#179 = ORIENTED_EDGE ( 'NONE', *, *, #171, .T. ) ;
#180 = EDGE_CURVE ( 'NONE', #147, #63, #111, .T. ) ;
#181 = VECTOR ( 'NONE', #43, 1000.000000000000000 ) ;
#182 = ORIENTED_EDGE ( 'NONE', *, *, #113, .T. ) ;
#183 = EDGE_CURVE ( 'NONE', #102, #191, #93, .T. ) ;
#184 = SURFACE_SIDE_STYLE ('',( #153 ) ) ;
#185 = DIRECTION ( 'NONE',  ( -0.0000000000000000000, -1.000000000000000000, -0.0000000000000000000 ) ) ;
#186 = CARTESIAN_POINT ( 'NONE',  ( 2.449293598294706500E-015, 0.0000000000000000000, 20.00000000000000000 ) ) ;
#187 = ORIENTED_EDGE ( 'NONE', *, *, #113, .F. ) ;
#188 = DIRECTION ( 'NONE',  ( -1.000000000000000000, 0.0000000000000000000, 1.224646799147353200E-016 ) ) ;
#189 = SURFACE_SIDE_STYLE ('',( #120 ) ) ;
#190 = FILL_AREA_STYLE_COLOUR ( '', #114 ) ;
#191 = VERTEX_POINT ( 'NONE', #145 ) ;
#192 = DIRECTION ( 'NONE',  ( -0.0000000000000000000, -1.000000000000000000, -0.0000000000000000000 ) ) ;
#193 = PRESENTATION_LAYER_ASSIGNMENT (  '', '', ( #116 ) ) ;
#194 = FILL_AREA_STYLE ('',( #190 ) ) ;
#195 = FILL_AREA_STYLE_COLOUR ( '', #199 ) ;
#196 = UNCERTAINTY_MEASURE_WITH_UNIT (LENGTH_MEASURE( 1.000000000000000100E-005 ), #82, 'distance_accuracy_value', 'NONE');
#197 = DIRECTION ( 'NONE',  ( 1.000000000000000000, 0.0000000000000000000, -1.614989364258507000E-015 ) ) ;
#198 = VECTOR ( 'NONE', #192, 1000.000000000000000 ) ;
#199 = COLOUR_RGB ( '',1.000000000000000000, 1.000000000000000000, 1.000000000000000000 ) ;
#200 = ORIENTED_EDGE ( 'NONE', *, *, #136, .T. ) ;
#201 = DIRECTION ( 'NONE',  ( -1.224646799147353200E-016, -0.0000000000000000000, -1.000000000000000000 ) ) ;
#202 = CARTESIAN_POINT ( 'NONE',  ( 0.0000000000000000000, 0.0000000000000000000, 0.0000000000000000000 ) ) ;
#203 = AXIS2_PLACEMENT_3D ( 'NONE', #122, #49, #57 ) ;
#204 = SURFACE_STYLE_USAGE ( .BOTH. , #184 ) ;
ENDSEC;
END-ISO-10303-21;
