ISO-10303-21;
HEADER;
FILE_DESCRIPTION (( 'STEP AP203' ),
    '1' );
FILE_NAME ('155516.STEP',
    '2021-05-26T08:54:26',
    ( '' ),
    ( '' ),
    'SwSTEP 2.0',
    'SolidWorks 2020',
    '' );
FILE_SCHEMA (( 'CONFIG_CONTROL_DESIGN' ));
ENDSEC;

DATA;
#1 = VECTOR ( 'NONE', #216, 1000.000000000000000 ) ;
#2 = DIRECTION ( 'NONE',  ( -0.000000000000000000, 1.000000000000000000, 0.000000000000000000 ) ) ;
#3 = CYLINDRICAL_SURFACE ( 'NONE', #103, 25.83999999999999986 ) ;
#4 = DATE_AND_TIME ( #31, #70 ) ;
#5 = DIRECTION ( 'NONE',  ( 0.000000000000000000, 0.000000000000000000, 1.000000000000000000 ) ) ;
#6 = CALENDAR_DATE ( 2021, 26, 5 ) ;
#7 = APPROVAL ( #194, 'Î´Ö¸¶¨' ) ;
#8 = COORDINATED_UNIVERSAL_TIME_OFFSET ( 8, 0, .AHEAD. ) ;
#9 = DATE_AND_TIME ( #260, #136 ) ;
#10 = PRODUCT_RELATED_PRODUCT_CATEGORY ( 'detail', '', ( #42 ) ) ;
#11 = VECTOR ( 'NONE', #84, 1000.000000000000000 ) ;
#12 = SHAPE_DEFINITION_REPRESENTATION ( #82, #115 ) ;
#13 = ORIENTED_EDGE ( 'NONE', *, *, #270, .F. ) ;
#14 = ADVANCED_FACE ( 'NONE', ( #60 ), #21, .T. ) ;
#15 = VECTOR ( 'NONE', #63, 1000.000000000000000 ) ;
#16 = APPROVAL_DATE_TIME ( #225, #203 ) ;
#17 = ORIENTED_EDGE ( 'NONE', *, *, #234, .F. ) ;
#18 = EDGE_CURVE ( 'NONE', #267, #133, #98, .T. ) ;
#19 = DIRECTION ( 'NONE',  ( -1.000000000000000000, 0.000000000000000000, 0.000000000000000000 ) ) ;
#20 = CARTESIAN_POINT ( 'NONE',  ( 23.83999999999999986, 0.000000000000000000, 25.00000000000000000 ) ) ;
#21 = CYLINDRICAL_SURFACE ( 'NONE', #164, 25.83999999999999986 ) ;
#22 = DIRECTION ( 'NONE',  ( -1.000000000000000000, 0.000000000000000000, 0.000000000000000000 ) ) ;
#23 = APPROVAL_PERSON_ORGANIZATION ( #262, #203, #224 ) ;
#24 = CARTESIAN_POINT ( 'NONE',  ( 0.000000000000000000, 6.250000000000000000, 0.000000000000000000 ) ) ;
#25 = CARTESIAN_POINT ( 'NONE',  ( -1.232756130908329917, 6.250000000000000000, 25.00000000000000000 ) ) ;
#26 = COORDINATED_UNIVERSAL_TIME_OFFSET ( 8, 0, .AHEAD. ) ;
#27 = DIRECTION ( 'NONE',  ( 0.000000000000000000, 0.000000000000000000, 1.000000000000000000 ) ) ;
#28 = MECHANICAL_CONTEXT ( 'NONE', #273, 'mechanical' ) ;
#29 = ADVANCED_FACE ( 'NONE', ( #204 ), #37, .T. ) ;
#30 = PERSON_AND_ORGANIZATION_ROLE ( 'creator' ) ;
#31 = CALENDAR_DATE ( 2021, 26, 5 ) ;
#32 = APPROVAL_ROLE ( '' ) ;
#33 = ORIENTED_EDGE ( 'NONE', *, *, #80, .T. ) ;
#34 = CC_DESIGN_PERSON_AND_ORGANIZATION_ASSIGNMENT ( #129, #195, ( #264 ) ) ;
#35 = EDGE_LOOP ( 'NONE', ( #55, #92, #200, #176 ) ) ;
#36 = AXIS2_PLACEMENT_3D ( 'NONE', #193, #5, #236 ) ;
#37 = PLANE ( 'NONE',  #198 ) ;
#38 = VERTEX_POINT ( 'NONE', #39 ) ;
#39 = CARTESIAN_POINT ( 'NONE',  ( -1.232756130908329917, -6.250000000000000000, 0.000000000000000000 ) ) ;
#40 = CARTESIAN_POINT ( 'NONE',  ( -1.232756130908329917, -6.250000000000000000, 25.00000000000000000 ) ) ;
#41 = CC_DESIGN_DATE_AND_TIME_ASSIGNMENT ( #111, #218, ( #199 ) ) ;
#42 = PRODUCT ( '155516', '155516', '', ( #28 ) ) ;
#43 = CARTESIAN_POINT ( 'NONE',  ( 23.83999999999999986, 0.000000000000000000, 0.000000000000000000 ) ) ;
#44 = CARTESIAN_POINT ( 'NONE',  ( 0.000000000000000000, -6.250000000000000000, 0.000000000000000000 ) ) ;
#45 = DIRECTION ( 'NONE',  ( 0.000000000000000000, 1.000000000000000000, 0.000000000000000000 ) ) ;
#46 = LINE ( 'NONE', #126, #1 ) ;
#47 = PERSON_AND_ORGANIZATION_ROLE ( 'creator' ) ;
#48 = EDGE_CURVE ( 'NONE', #38, #267, #254, .T. ) ;
#49 = VECTOR ( 'NONE', #59, 1000.000000000000000 ) ;
#50 = PERSON_AND_ORGANIZATION ( #222, #104 ) ;
#51 = VECTOR ( 'NONE', #62, 1000.000000000000000 ) ;
#52 = EDGE_CURVE ( 'NONE', #251, #181, #61, .T. ) ;
#53 = ORIENTED_EDGE ( 'NONE', *, *, #48, .F. ) ;
#54 = CALENDAR_DATE ( 2021, 26, 5 ) ;
#55 = ORIENTED_EDGE ( 'NONE', *, *, #180, .T. ) ;
#56 = CC_DESIGN_PERSON_AND_ORGANIZATION_ASSIGNMENT ( #50, #30, ( #213 ) ) ;
#57 = VECTOR ( 'NONE', #169, 1000.000000000000000 ) ;
#58 = CC_DESIGN_APPROVAL ( #7, ( #199 ) ) ;
#59 = DIRECTION ( 'NONE',  ( 0.000000000000000000, 1.000000000000000000, 0.000000000000000000 ) ) ;
#60 = FACE_OUTER_BOUND ( 'NONE', #35, .T. ) ;
#61 = LINE ( 'NONE', #40, #240 ) ;
#62 = DIRECTION ( 'NONE',  ( 0.000000000000000000, 0.000000000000000000, 1.000000000000000000 ) ) ;
#63 = DIRECTION ( 'NONE',  ( 0.000000000000000000, 1.000000000000000000, 0.000000000000000000 ) ) ;
#64 = PLANE ( 'NONE',  #248 ) ;
#65 = PLANE ( 'NONE',  #212 ) ;
#66 = DIRECTION ( 'NONE',  ( 1.000000000000000000, 0.000000000000000000, 0.000000000000000000 ) ) ;
#67 = APPLICATION_PROTOCOL_DEFINITION ( 'international standard', 'config_control_design', 1994, #95 ) ;
#68 = CALENDAR_DATE ( 2021, 26, 5 ) ;
#69 = AXIS2_PLACEMENT_3D ( 'NONE', #43, #27, #143 ) ;
#70 = LOCAL_TIME ( 16, 54, 26.00000000000000000, #26 ) ;
#71 = VERTEX_POINT ( 'NONE', #78 ) ;
#72 = EDGE_CURVE ( 'NONE', #246, #183, #112, .T. ) ;
#73 = ORIENTED_EDGE ( 'NONE', *, *, #242, .F. ) ;
#74 = ORIENTED_EDGE ( 'NONE', *, *, #214, .T. ) ;
#75 = CARTESIAN_POINT ( 'NONE',  ( 0.000000000000000000, -6.250000000000000000, 0.000000000000000000 ) ) ;
#76 = DIRECTION ( 'NONE',  ( 1.000000000000000000, 0.000000000000000000, 0.000000000000000000 ) ) ;
#77 = VECTOR ( 'NONE', #120, 1000.000000000000000 ) ;
#78 = CARTESIAN_POINT ( 'NONE',  ( 0.000000000000000000, 6.250000000000000000, 25.00000000000000000 ) ) ;
#79 = CARTESIAN_POINT ( 'NONE',  ( -1.232756130908329917, -6.250000000000000000, 0.000000000000000000 ) ) ;
#80 = EDGE_CURVE ( 'NONE', #71, #246, #207, .T. ) ;
#81 = VECTOR ( 'NONE', #123, 1000.000000000000000 ) ;
#82 = PRODUCT_DEFINITION_SHAPE ( 'NONE', 'NONE',  #199 ) ;
#83 = DIRECTION ( 'NONE',  ( 0.000000000000000000, 0.000000000000000000, 1.000000000000000000 ) ) ;
#84 = DIRECTION ( 'NONE',  ( 0.000000000000000000, 0.000000000000000000, 1.000000000000000000 ) ) ;
#85 = CARTESIAN_POINT ( 'NONE',  ( -1.232756130908329917, -6.250000000000000000, 25.00000000000000000 ) ) ;
#86 = PERSON_AND_ORGANIZATION_ROLE ( 'design_supplier' ) ;
#87 = CARTESIAN_POINT ( 'NONE',  ( -1.999999999999998224, 0.000000000000000000, 0.000000000000000000 ) ) ;
#88 = SECURITY_CLASSIFICATION_LEVEL ( 'unclassified' ) ;
#89 = PERSON_AND_ORGANIZATION ( #222, #104 ) ;
#90 = CC_DESIGN_PERSON_AND_ORGANIZATION_ASSIGNMENT ( #192, #47, ( #199 ) ) ;
#91 = ORIENTED_EDGE ( 'NONE', *, *, #80, .F. ) ;
#92 = ORIENTED_EDGE ( 'NONE', *, *, #157, .T. ) ;
#93 = APPROVAL_PERSON_ORGANIZATION ( #89, #151, #175 ) ;
#94 = EDGE_CURVE ( 'NONE', #133, #71, #101, .T. ) ;
#95 = APPLICATION_CONTEXT ( 'configuration controlled 3d designs of mechanical parts and assemblies' ) ;
#96 = ORIENTED_EDGE ( 'NONE', *, *, #52, .F. ) ;
#97 = ORIENTED_EDGE ( 'NONE', *, *, #48, .T. ) ;
#98 = LINE ( 'NONE', #75, #49 ) ;
#99 = FACE_OUTER_BOUND ( 'NONE', #156, .T. ) ;
#100 = ORIENTED_EDGE ( 'NONE', *, *, #270, .T. ) ;
#101 = LINE ( 'NONE', #165, #228 ) ;
#102 =( LENGTH_UNIT ( ) NAMED_UNIT ( * ) SI_UNIT ( .MILLI., .METRE. ) );
#103 = AXIS2_PLACEMENT_3D ( 'NONE', #188, #170, #106 ) ;
#104 = ORGANIZATION ( 'Î´Ö¸¶¨', 'Î´Ö¸¶¨', '' ) ;
#105 = CARTESIAN_POINT ( 'NONE',  ( -1.232756130908329917, 6.250000000000000000, 0.000000000000000000 ) ) ;
#106 = DIRECTION ( 'NONE',  ( -1.000000000000000000, 0.000000000000000000, 0.000000000000000000 ) ) ;
#107 = PERSON_AND_ORGANIZATION_ROLE ( 'design_owner' ) ;
#108 = CARTESIAN_POINT ( 'NONE',  ( 0.000000000000000000, -6.250000000000000000, 0.000000000000000000 ) ) ;
#109 = PERSON_AND_ORGANIZATION ( #222, #104 ) ;
#110 = DATE_AND_TIME ( #68, #178 ) ;
#111 = DATE_AND_TIME ( #6, #249 ) ;
#112 = CIRCLE ( 'NONE', #272, 25.84000000000000341 ) ;
#113 = EDGE_LOOP ( 'NONE', ( #163, #206, #172, #73 ) ) ;
#114 = EDGE_LOOP ( 'NONE', ( #100, #160, #91, #159 ) ) ;
#115 = ADVANCED_BREP_SHAPE_REPRESENTATION ( '155516', ( #148, #124 ), #177 ) ;
#116 = CARTESIAN_POINT ( 'NONE',  ( -0.7748010738076280823, -2.961563311936300291, 25.00000000000000000 ) ) ;
#117 = CARTESIAN_POINT ( 'NONE',  ( 0.000000000000000000, 6.250000000000000000, 25.00000000000000000 ) ) ;
#118 = EDGE_CURVE ( 'NONE', #38, #251, #205, .T. ) ;
#119 = ORIENTED_EDGE ( 'NONE', *, *, #18, .F. ) ;
#120 = DIRECTION ( 'NONE',  ( 1.000000000000000000, 0.000000000000000000, 0.000000000000000000 ) ) ;
#121 = CARTESIAN_POINT ( 'NONE',  ( -1.999999999999998224, 0.000000000000000000, 0.000000000000000000 ) ) ;
#122 = FACE_OUTER_BOUND ( 'NONE', #114, .T. ) ;
#123 = DIRECTION ( 'NONE',  ( 0.000000000000000000, 0.000000000000000000, 1.000000000000000000 ) ) ;
#124 = AXIS2_PLACEMENT_3D ( 'NONE', #174, #239, #197 ) ;
#125 = FACE_OUTER_BOUND ( 'NONE', #113, .T. ) ;
#126 = CARTESIAN_POINT ( 'NONE',  ( 0.000000000000000000, 6.250000000000000000, 0.000000000000000000 ) ) ;
#127 = CLOSED_SHELL ( 'NONE', ( #14, #253, #29, #245, #138, #223, #187 ) ) ;
#128 = CC_DESIGN_PERSON_AND_ORGANIZATION_ASSIGNMENT ( #109, #86, ( #213 ) ) ;
#129 = PERSON_AND_ORGANIZATION ( #222, #104 ) ;
#130 = CC_DESIGN_SECURITY_CLASSIFICATION ( #264, ( #213 ) ) ;
#131 = UNCERTAINTY_MEASURE_WITH_UNIT (LENGTH_MEASURE( 1.000000000000000082E-05 ), #102, 'distance_accuracy_value', 'NONE');
#132 = EDGE_LOOP ( 'NONE', ( #119, #53, #266, #139, #13 ) ) ;
#133 = VERTEX_POINT ( 'NONE', #142 ) ;
#134 = CC_DESIGN_PERSON_AND_ORGANIZATION_ASSIGNMENT ( #220, #107, ( #42 ) ) ;
#135 = CIRCLE ( 'NONE', #69, 25.84000000000000341 ) ;
#136 = LOCAL_TIME ( 16, 54, 26.00000000000000000, #152 ) ;
#137 = VERTEX_POINT ( 'NONE', #121 ) ;
#138 = ADVANCED_FACE ( 'NONE', ( #99 ), #184, .T. ) ;
#139 = ORIENTED_EDGE ( 'NONE', *, *, #180, .F. ) ;
#140 = DIRECTION ( 'NONE',  ( 1.000000000000000000, 0.000000000000000000, 0.000000000000000000 ) ) ;
#141 = DESIGN_CONTEXT ( 'detailed design', #95, 'design' ) ;
#142 = CARTESIAN_POINT ( 'NONE',  ( 0.000000000000000000, 6.250000000000000000, 0.000000000000000000 ) ) ;
#143 = DIRECTION ( 'NONE',  ( -0.9703078998029529556, 0.2418730650154799489, 0.000000000000000000 ) ) ;
#144 = CARTESIAN_POINT ( 'NONE',  ( 23.83999999999999986, 0.000000000000000000, 0.000000000000000000 ) ) ;
#145 = DIRECTION ( 'NONE',  ( 1.000000000000000000, 0.000000000000000000, 0.000000000000000000 ) ) ;
#146 = DIRECTION ( 'NONE',  ( -0.9703078998029529556, 0.2418730650154799489, 0.000000000000000000 ) ) ;
#147 = APPROVAL_DATE_TIME ( #9, #7 ) ;
#148 = MANIFOLD_SOLID_BREP ( '155516.stp', #127 ) ;
#149 = APPLICATION_PROTOCOL_DEFINITION ( 'international standard', 'config_control_design', 1994, #273 ) ;
#150 = VECTOR ( 'NONE', #22, 1000.000000000000000 ) ;
#151 = APPROVAL ( #217, 'Î´Ö¸¶¨' ) ;
#152 = COORDINATED_UNIVERSAL_TIME_OFFSET ( 8, 0, .AHEAD. ) ;
#153 = APPROVAL_STATUS ( 'not_yet_approved' ) ;
#154 = AXIS2_PLACEMENT_3D ( 'NONE', #271, #166, #233 ) ;
#155 = COORDINATED_UNIVERSAL_TIME_OFFSET ( 8, 0, .AHEAD. ) ;
#156 = EDGE_LOOP ( 'NONE', ( #97, #179, #96, #247 ) ) ;
#157 = EDGE_CURVE ( 'NONE', #137, #183, #237, .T. ) ;
#158 = VERTEX_POINT ( 'NONE', #235 ) ;
#159 = ORIENTED_EDGE ( 'NONE', *, *, #94, .F. ) ;
#160 = ORIENTED_EDGE ( 'NONE', *, *, #208, .T. ) ;
#161 = AXIS2_PLACEMENT_3D ( 'NONE', #24, #2, #173 ) ;
#162 = CC_DESIGN_DATE_AND_TIME_ASSIGNMENT ( #110, #196, ( #264 ) ) ;
#163 = ORIENTED_EDGE ( 'NONE', *, *, #18, .T. ) ;
#164 = AXIS2_PLACEMENT_3D ( 'NONE', #268, #230, #19 ) ;
#165 = CARTESIAN_POINT ( 'NONE',  ( 0.000000000000000000, 6.250000000000000000, 0.000000000000000000 ) ) ;
#166 = DIRECTION ( 'NONE',  ( 0.000000000000000000, -1.000000000000000000, 0.000000000000000000 ) ) ;
#167 = AXIS2_PLACEMENT_3D ( 'NONE', #144, #83, #146 ) ;
#168 = FACE_OUTER_BOUND ( 'NONE', #132, .T. ) ;
#169 = DIRECTION ( 'NONE',  ( 0.000000000000000000, 0.000000000000000000, 1.000000000000000000 ) ) ;
#170 = DIRECTION ( 'NONE',  ( 0.000000000000000000, 0.000000000000000000, 1.000000000000000000 ) ) ;
#171 =( NAMED_UNIT ( * ) SI_UNIT ( $, .STERADIAN. ) SOLID_ANGLE_UNIT ( ) );
#172 = ORIENTED_EDGE ( 'NONE', *, *, #214, .F. ) ;
#173 = DIRECTION ( 'NONE',  ( 1.000000000000000000, 0.000000000000000000, 0.000000000000000000 ) ) ;
#174 = CARTESIAN_POINT ( 'NONE',  ( 0.000000000000000000, 0.000000000000000000, 0.000000000000000000 ) ) ;
#175 = APPROVAL_ROLE ( '' ) ;
#176 = ORIENTED_EDGE ( 'NONE', *, *, #208, .F. ) ;
#177 =( GEOMETRIC_REPRESENTATION_CONTEXT ( 3 ) GLOBAL_UNCERTAINTY_ASSIGNED_CONTEXT ( ( #131 ) ) GLOBAL_UNIT_ASSIGNED_CONTEXT ( ( #102, #243, #171 ) ) REPRESENTATION_CONTEXT ( 'NONE', 'WORKASPACE' ) );
#178 = LOCAL_TIME ( 16, 54, 26.00000000000000000, #8 ) ;
#179 = ORIENTED_EDGE ( 'NONE', *, *, #242, .T. ) ;
#180 = EDGE_CURVE ( 'NONE', #158, #137, #135, .T. ) ;
#181 = VERTEX_POINT ( 'NONE', #261 ) ;
#182 = ORIENTED_EDGE ( 'NONE', *, *, #72, .T. ) ;
#183 = VERTEX_POINT ( 'NONE', #209 ) ;
#184 = PLANE ( 'NONE',  #154 ) ;
#185 = ORIENTED_EDGE ( 'NONE', *, *, #52, .T. ) ;
#186 = DIRECTION ( 'NONE',  ( 0.000000000000000000, 0.000000000000000000, 1.000000000000000000 ) ) ;
#187 = ADVANCED_FACE ( 'NONE', ( #122 ), #190, .T. ) ;
#188 = CARTESIAN_POINT ( 'NONE',  ( 23.83999999999999986, 0.000000000000000000, 0.000000000000000000 ) ) ;
#189 = APPROVAL_PERSON_ORGANIZATION ( #211, #7, #32 ) ;
#190 = PLANE ( 'NONE',  #161 ) ;
#191 = LINE ( 'NONE', #44, #81 ) ;
#192 = PERSON_AND_ORGANIZATION ( #222, #104 ) ;
#193 = CARTESIAN_POINT ( 'NONE',  ( 23.83999999999999986, 0.000000000000000000, 25.00000000000000000 ) ) ;
#194 = APPROVAL_STATUS ( 'not_yet_approved' ) ;
#195 = PERSON_AND_ORGANIZATION_ROLE ( 'classification_officer' ) ;
#196 = DATE_TIME_ROLE ( 'classification_date' ) ;
#197 = DIRECTION ( 'NONE',  ( 1.000000000000000000, 0.000000000000000000, 0.000000000000000000 ) ) ;
#198 = AXIS2_PLACEMENT_3D ( 'NONE', #116, #269, #76 ) ;
#199 = PRODUCT_DEFINITION ( 'Î´Öª', '', #213, #141 ) ;
#200 = ORIENTED_EDGE ( 'NONE', *, *, #72, .F. ) ;
#201 = EDGE_LOOP ( 'NONE', ( #231, #226, #250, #17 ) ) ;
#202 = CIRCLE ( 'NONE', #36, 25.84000000000000341 ) ;
#203 = APPROVAL ( #153, 'Î´Ö¸¶¨' ) ;
#204 = FACE_OUTER_BOUND ( 'NONE', #263, .T. ) ;
#205 = LINE ( 'NONE', #79, #51 ) ;
#206 = ORIENTED_EDGE ( 'NONE', *, *, #94, .T. ) ;
#207 = LINE ( 'NONE', #117, #150 ) ;
#208 = EDGE_CURVE ( 'NONE', #158, #246, #255, .T. ) ;
#209 = CARTESIAN_POINT ( 'NONE',  ( -1.999999999999998224, 0.000000000000000000, 25.00000000000000000 ) ) ;
#210 = FACE_OUTER_BOUND ( 'NONE', #201, .T. ) ;
#211 = PERSON_AND_ORGANIZATION ( #222, #104 ) ;
#212 = AXIS2_PLACEMENT_3D ( 'NONE', #108, #145, #45 ) ;
#213 = PRODUCT_DEFINITION_FORMATION_WITH_SPECIFIED_SOURCE ( 'ÈÎºÎ', '', #42, .NOT_KNOWN. ) ;
#214 = EDGE_CURVE ( 'NONE', #181, #71, #258, .T. ) ;
#215 = CARTESIAN_POINT ( 'NONE',  ( 0.000000000000000000, -6.250000000000000000, 25.00000000000000000 ) ) ;
#216 = DIRECTION ( 'NONE',  ( -1.000000000000000000, 0.000000000000000000, 0.000000000000000000 ) ) ;
#217 = APPROVAL_STATUS ( 'not_yet_approved' ) ;
#218 = DATE_TIME_ROLE ( 'creation_date' ) ;
#219 = COORDINATED_UNIVERSAL_TIME_OFFSET ( 8, 0, .AHEAD. ) ;
#220 = PERSON_AND_ORGANIZATION ( #222, #104 ) ;
#221 = CC_DESIGN_APPROVAL ( #203, ( #264 ) ) ;
#222 = PERSON ( 'Î´Ö¸¶¨', 'Î´Ö¸¶¨', 'Î´Ö¸¶¨', ('Î´Ö¸¶¨'), ('Î´Ö¸¶¨'), ('Î´Ö¸¶¨') ) ;
#223 = ADVANCED_FACE ( 'NONE', ( #125 ), #65, .T. ) ;
#224 = APPROVAL_ROLE ( '' ) ;
#225 = DATE_AND_TIME ( #54, #257 ) ;
#226 = ORIENTED_EDGE ( 'NONE', *, *, #265, .T. ) ;
#227 = ORIENTED_EDGE ( 'NONE', *, *, #234, .T. ) ;
#228 = VECTOR ( 'NONE', #252, 1000.000000000000000 ) ;
#229 = CC_DESIGN_APPROVAL ( #151, ( #213 ) ) ;
#230 = DIRECTION ( 'NONE',  ( 0.000000000000000000, 0.000000000000000000, 1.000000000000000000 ) ) ;
#231 = ORIENTED_EDGE ( 'NONE', *, *, #157, .F. ) ;
#232 = CARTESIAN_POINT ( 'NONE',  ( -1.232756130908329917, -6.250000000000000000, 0.000000000000000000 ) ) ;
#233 = DIRECTION ( 'NONE',  ( 0.000000000000000000, 0.000000000000000000, -1.000000000000000000 ) ) ;
#234 = EDGE_CURVE ( 'NONE', #183, #251, #202, .T. ) ;
#235 = CARTESIAN_POINT ( 'NONE',  ( -1.232756130908329917, 6.250000000000000000, 0.000000000000000000 ) ) ;
#236 = DIRECTION ( 'NONE',  ( -0.9703078998029529556, 0.2418730650154799489, 0.000000000000000000 ) ) ;
#237 = LINE ( 'NONE', #87, #11 ) ;
#238 = CARTESIAN_POINT ( 'NONE',  ( 0.000000000000000000, -6.250000000000000000, 0.000000000000000000 ) ) ;
#239 = DIRECTION ( 'NONE',  ( 0.000000000000000000, 0.000000000000000000, 1.000000000000000000 ) ) ;
#240 = VECTOR ( 'NONE', #140, 1000.000000000000000 ) ;
#241 = APPROVAL_DATE_TIME ( #4, #151 ) ;
#242 = EDGE_CURVE ( 'NONE', #267, #181, #191, .T. ) ;
#243 =( NAMED_UNIT ( * ) PLANE_ANGLE_UNIT ( ) SI_UNIT ( $, .RADIAN. ) );
#244 = CIRCLE ( 'NONE', #167, 25.84000000000000341 ) ;
#245 = ADVANCED_FACE ( 'NONE', ( #210 ), #3, .T. ) ;
#246 = VERTEX_POINT ( 'NONE', #25 ) ;
#247 = ORIENTED_EDGE ( 'NONE', *, *, #118, .F. ) ;
#248 = AXIS2_PLACEMENT_3D ( 'NONE', #259, #256, #66 ) ;
#249 = LOCAL_TIME ( 16, 54, 26.00000000000000000, #219 ) ;
#250 = ORIENTED_EDGE ( 'NONE', *, *, #118, .T. ) ;
#251 = VERTEX_POINT ( 'NONE', #85 ) ;
#252 = DIRECTION ( 'NONE',  ( 0.000000000000000000, 0.000000000000000000, 1.000000000000000000 ) ) ;
#253 = ADVANCED_FACE ( 'NONE', ( #168 ), #64, .F. ) ;
#254 = LINE ( 'NONE', #232, #77 ) ;
#255 = LINE ( 'NONE', #105, #57 ) ;
#256 = DIRECTION ( 'NONE',  ( 0.000000000000000000, 0.000000000000000000, 1.000000000000000000 ) ) ;
#257 = LOCAL_TIME ( 16, 54, 26.00000000000000000, #155 ) ;
#258 = LINE ( 'NONE', #215, #15 ) ;
#259 = CARTESIAN_POINT ( 'NONE',  ( -0.7748010738076280823, -2.961563311936300291, 0.000000000000000000 ) ) ;
#260 = CALENDAR_DATE ( 2021, 26, 5 ) ;
#261 = CARTESIAN_POINT ( 'NONE',  ( 0.000000000000000000, -6.250000000000000000, 25.00000000000000000 ) ) ;
#262 = PERSON_AND_ORGANIZATION ( #222, #104 ) ;
#263 = EDGE_LOOP ( 'NONE', ( #182, #227, #185, #74, #33 ) ) ;
#264 = SECURITY_CLASSIFICATION ( '', '', #88 ) ;
#265 = EDGE_CURVE ( 'NONE', #137, #38, #244, .T. ) ;
#266 = ORIENTED_EDGE ( 'NONE', *, *, #265, .F. ) ;
#267 = VERTEX_POINT ( 'NONE', #238 ) ;
#268 = CARTESIAN_POINT ( 'NONE',  ( 23.83999999999999986, 0.000000000000000000, 0.000000000000000000 ) ) ;
#269 = DIRECTION ( 'NONE',  ( 0.000000000000000000, 0.000000000000000000, 1.000000000000000000 ) ) ;
#270 = EDGE_CURVE ( 'NONE', #133, #158, #46, .T. ) ;
#271 = CARTESIAN_POINT ( 'NONE',  ( -1.232756130908329917, -6.250000000000000000, 0.000000000000000000 ) ) ;
#272 = AXIS2_PLACEMENT_3D ( 'NONE', #20, #186, #274 ) ;
#273 = APPLICATION_CONTEXT ( 'configuration controlled 3d designs of mechanical parts and assemblies' ) ;
#274 = DIRECTION ( 'NONE',  ( -0.9703078998029529556, 0.2418730650154799489, 0.000000000000000000 ) ) ;
ENDSEC;
END-ISO-10303-21;
