ISO-10303-21;
HEADER;
FILE_DESCRIPTION (( 'STEP AP214' ),
    '1' );
FILE_NAME ('258503.STEP',
    '2019-08-06T08:56:14',
    ( 'user' ),
    ( 'Î¢ÈíÖÐ¹ú' ),
    'SwSTEP 2.0',
    'SolidWorks 2016',
    '' );
FILE_SCHEMA (( 'AUTOMOTIVE_DESIGN' ));
ENDSEC;

DATA;
#1 =( GEOMETRIC_REPRESENTATION_CONTEXT ( 3 ) GLOBAL_UNCERTAINTY_ASSIGNED_CONTEXT ( ( #155 ) ) GLOBAL_UNIT_ASSIGNED_CONTEXT ( ( #90, #196, #105 ) ) REPRESENTATION_CONTEXT ( 'NONE', 'WORKASPACE' ) );
#2 = DIRECTION ( 'NONE',  ( 1.000000000000000000, 0.0000000000000000000, 0.0000000000000000000 ) ) ;
#3 =( LENGTH_UNIT ( ) NAMED_UNIT ( * ) SI_UNIT ( .MILLI., .METRE. ) );
#4 = CARTESIAN_POINT ( 'NONE',  ( 12.50000000000000200, 1.100000000000000100, -12.50000000000000000 ) ) ;
#5 = VECTOR ( 'NONE', #49, 1000.000000000000000 ) ;
#6 = PRESENTATION_LAYER_ASSIGNMENT (  '', '', ( #58 ) ) ;
#7 = DIRECTION ( 'NONE',  ( -1.000000000000000000, -0.0000000000000000000, -0.0000000000000000000 ) ) ;
#8 = CARTESIAN_POINT ( 'NONE',  ( -12.49999999999999500, 1.100000000000000100, 12.50000000000000000 ) ) ;
#9 = AXIS2_PLACEMENT_3D ( 'NONE', #56, #44, #153 ) ;
#10 = SHAPE_DEFINITION_REPRESENTATION ( #117, #143 ) ;
#11 = ORIENTED_EDGE ( 'NONE', *, *, #19, .F. ) ;
#12 = DIRECTION ( 'NONE',  ( 1.387778780781445700E-016, 0.0000000000000000000, 1.000000000000000000 ) ) ;
#13 = FILL_AREA_STYLE_COLOUR ( '', #36 ) ;
#14 = FACE_OUTER_BOUND ( 'NONE', #57, .T. ) ;
#15 = APPLICATION_CONTEXT ( 'automotive_design' ) ;
#16 = PRESENTATION_LAYER_ASSIGNMENT (  '', '', ( #118 ) ) ;
#17 = VERTEX_POINT ( 'NONE', #75 ) ;
#18 =( GEOMETRIC_REPRESENTATION_CONTEXT ( 3 ) GLOBAL_UNCERTAINTY_ASSIGNED_CONTEXT ( ( #98 ) ) GLOBAL_UNIT_ASSIGNED_CONTEXT ( ( #186, #92, #138 ) ) REPRESENTATION_CONTEXT ( 'NONE', 'WORKASPACE' ) );
#19 = EDGE_CURVE ( 'NONE', #190, #200, #154, .T. ) ;
#20 = ORIENTED_EDGE ( 'NONE', *, *, #179, .F. ) ;
#21 = CARTESIAN_POINT ( 'NONE',  ( -12.49999999999999800, 1.100000000000000100, -12.50000000000000000 ) ) ;
#22 = CARTESIAN_POINT ( 'NONE',  ( -12.49999999999999800, 1.100000000000000100, -12.50000000000000000 ) ) ;
#23 = PRODUCT_DEFINITION_CONTEXT ( 'detailed design', #15, 'design' ) ;
#24 = ORIENTED_EDGE ( 'NONE', *, *, #80, .T. ) ;
#25 = ADVANCED_FACE ( 'NONE', ( #193 ), #189, .F. ) ;
#26 = CARTESIAN_POINT ( 'NONE',  ( -12.49999999999999500, 1.100000000000000100, 12.50000000000000000 ) ) ;
#27 = CARTESIAN_POINT ( 'NONE',  ( 12.50000000000000200, 1.100000000000000100, -12.50000000000000000 ) ) ;
#28 = CARTESIAN_POINT ( 'NONE',  ( -12.49999999999999800, 1.100000000000000100, -12.50000000000000000 ) ) ;
#29 = FACE_OUTER_BOUND ( 'NONE', #144, .T. ) ;
#30 = PRODUCT_DEFINITION ( 'Î´Öª', '', #161, #23 ) ;
#31 = VECTOR ( 'NONE', #12, 1000.000000000000000 ) ;
#32 = EDGE_LOOP ( 'NONE', ( #140, #83, #11, #187 ) ) ;
#33 = VECTOR ( 'NONE', #141, 1000.000000000000000 ) ;
#34 = ORIENTED_EDGE ( 'NONE', *, *, #99, .T. ) ;
#35 = LINE ( 'NONE', #21, #170 ) ;
#36 = COLOUR_RGB ( '',1.000000000000000000, 1.000000000000000000, 1.000000000000000000 ) ;
#37 = ADVANCED_FACE ( 'NONE', ( #29 ), #164, .F. ) ;
#38 = AXIS2_PLACEMENT_3D ( 'NONE', #184, #73, #2 ) ;
#39 = DIRECTION ( 'NONE',  ( 1.000000000000000000, 0.0000000000000000000, 0.0000000000000000000 ) ) ;
#40 = PLANE ( 'NONE',  #132 ) ;
#41 = ORIENTED_EDGE ( 'NONE', *, *, #99, .F. ) ;
#42 = DIRECTION ( 'NONE',  ( -0.0000000000000000000, -1.000000000000000000, -0.0000000000000000000 ) ) ;
#43 = LINE ( 'NONE', #26, #5 ) ;
#44 = DIRECTION ( 'NONE',  ( 0.0000000000000000000, 0.0000000000000000000, 1.000000000000000000 ) ) ;
#45 = ORIENTED_EDGE ( 'NONE', *, *, #69, .F. ) ;
#46 = FACE_OUTER_BOUND ( 'NONE', #32, .T. ) ;
#47 = ORIENTED_EDGE ( 'NONE', *, *, #114, .F. ) ;
#48 = CARTESIAN_POINT ( 'NONE',  ( 12.50000000000000200, 0.0000000000000000000, -12.50000000000000000 ) ) ;
#49 = DIRECTION ( 'NONE',  ( -0.0000000000000000000, -1.000000000000000000, -0.0000000000000000000 ) ) ;
#50 = LINE ( 'NONE', #103, #71 ) ;
#51 = CARTESIAN_POINT ( 'NONE',  ( -12.49999999999999800, 1.100000000000000100, -12.50000000000000000 ) ) ;
#52 = EDGE_CURVE ( 'NONE', #17, #190, #121, .T. ) ;
#53 = CARTESIAN_POINT ( 'NONE',  ( -12.49999999999999500, 0.0000000000000000000, 12.50000000000000000 ) ) ;
#54 = MECHANICAL_DESIGN_GEOMETRIC_PRESENTATION_REPRESENTATION (  '', ( #118 ), #18 ) ;
#55 = CARTESIAN_POINT ( 'NONE',  ( -12.49999999999999800, 1.100000000000000100, -12.50000000000000000 ) ) ;
#56 = CARTESIAN_POINT ( 'NONE',  ( -12.49999999999999800, 1.100000000000000100, -12.50000000000000000 ) ) ;
#57 = EDGE_LOOP ( 'NONE', ( #61, #97, #183, #115 ) ) ;
#58 = STYLED_ITEM ( 'NONE', ( #191 ), #143 ) ;
#59 = EDGE_CURVE ( 'NONE', #177, #133, #35, .T. ) ;
#60 = CARTESIAN_POINT ( 'NONE',  ( -12.49999999999999800, 0.0000000000000000000, -12.50000000000000000 ) ) ;
#61 = ORIENTED_EDGE ( 'NONE', *, *, #19, .T. ) ;
#62 = PRODUCT ( '258503', '258503', '', ( #94 ) ) ;
#63 = EDGE_LOOP ( 'NONE', ( #152, #41, #20, #176 ) ) ;
#64 = CARTESIAN_POINT ( 'NONE',  ( -12.49999999999999800, 0.0000000000000000000, -12.50000000000000000 ) ) ;
#65 = LINE ( 'NONE', #48, #131 ) ;
#66 = EDGE_CURVE ( 'NONE', #111, #17, #65, .T. ) ;
#67 = DIRECTION ( 'NONE',  ( 1.000000000000000000, 0.0000000000000000000, -1.387778780781445700E-016 ) ) ;
#68 = DIRECTION ( 'NONE',  ( 0.0000000000000000000, 1.000000000000000000, 0.0000000000000000000 ) ) ;
#69 = EDGE_CURVE ( 'NONE', #133, #190, #84, .T. ) ;
#70 = VERTEX_POINT ( 'NONE', #8 ) ;
#71 = VECTOR ( 'NONE', #123, 1000.000000000000000 ) ;
#72 =( NAMED_UNIT ( * ) SI_UNIT ( $, .STERADIAN. ) SOLID_ANGLE_UNIT ( ) );
#73 = DIRECTION ( 'NONE',  ( 0.0000000000000000000, 0.0000000000000000000, 1.000000000000000000 ) ) ;
#74 = APPLICATION_CONTEXT ( 'automotive_design' ) ;
#75 = CARTESIAN_POINT ( 'NONE',  ( 12.50000000000000200, 0.0000000000000000000, -12.50000000000000000 ) ) ;
#76 =( GEOMETRIC_REPRESENTATION_CONTEXT ( 3 ) GLOBAL_UNCERTAINTY_ASSIGNED_CONTEXT ( ( #174 ) ) GLOBAL_UNIT_ASSIGNED_CONTEXT ( ( #3, #93, #72 ) ) REPRESENTATION_CONTEXT ( 'NONE', 'WORKASPACE' ) );
#77 = ORIENTED_EDGE ( 'NONE', *, *, #59, .T. ) ;
#78 = LINE ( 'NONE', #101, #126 ) ;
#79 = FACE_OUTER_BOUND ( 'NONE', #156, .T. ) ;
#80 = EDGE_CURVE ( 'NONE', #200, #111, #78, .T. ) ;
#81 = MECHANICAL_DESIGN_GEOMETRIC_PRESENTATION_REPRESENTATION (  '', ( #58 ), #76 ) ;
#82 = COLOUR_RGB ( '',1.000000000000000000, 1.000000000000000000, 1.000000000000000000 ) ;
#83 = ORIENTED_EDGE ( 'NONE', *, *, #80, .F. ) ;
#84 = LINE ( 'NONE', #22, #202 ) ;
#85 = VECTOR ( 'NONE', #166, 1000.000000000000000 ) ;
#86 = DIRECTION ( 'NONE',  ( 1.387778780781445700E-016, 0.0000000000000000000, 1.000000000000000000 ) ) ;
#87 = AXIS2_PLACEMENT_3D ( 'NONE', #109, #68, #185 ) ;
#88 = CARTESIAN_POINT ( 'NONE',  ( 12.50000000000000200, 1.100000000000000100, -12.50000000000000000 ) ) ;
#89 = EDGE_CURVE ( 'NONE', #70, #200, #43, .T. ) ;
#90 =( LENGTH_UNIT ( ) NAMED_UNIT ( * ) SI_UNIT ( .MILLI., .METRE. ) );
#91 = ADVANCED_FACE ( 'NONE', ( #14 ), #149, .F. ) ;
#92 =( NAMED_UNIT ( * ) PLANE_ANGLE_UNIT ( ) SI_UNIT ( $, .RADIAN. ) );
#93 =( NAMED_UNIT ( * ) PLANE_ANGLE_UNIT ( ) SI_UNIT ( $, .RADIAN. ) );
#94 = PRODUCT_CONTEXT ( 'NONE', #74, 'mechanical' ) ;
#95 = SURFACE_STYLE_USAGE ( .BOTH. , #188 ) ;
#96 = EDGE_CURVE ( 'NONE', #70, #125, #50, .T. ) ;
#97 = ORIENTED_EDGE ( 'NONE', *, *, #89, .F. ) ;
#98 = UNCERTAINTY_MEASURE_WITH_UNIT (LENGTH_MEASURE( 1.000000000000000100E-005 ), #186, 'distance_accuracy_value', 'NONE');
#99 = EDGE_CURVE ( 'NONE', #177, #17, #162, .T. ) ;
#100 = AXIS2_PLACEMENT_3D ( 'NONE', #51, #67, #181 ) ;
#101 = CARTESIAN_POINT ( 'NONE',  ( -12.49999999999999500, 0.0000000000000000000, 12.50000000000000000 ) ) ;
#102 = ADVANCED_FACE ( 'NONE', ( #79 ), #175, .F. ) ;
#103 = CARTESIAN_POINT ( 'NONE',  ( -12.49999999999999500, 1.100000000000000100, 12.50000000000000000 ) ) ;
#104 = LINE ( 'NONE', #28, #31 ) ;
#105 =( NAMED_UNIT ( * ) SI_UNIT ( $, .STERADIAN. ) SOLID_ANGLE_UNIT ( ) );
#106 = AXIS2_PLACEMENT_3D ( 'NONE', #178, #135, #147 ) ;
#107 = ORIENTED_EDGE ( 'NONE', *, *, #59, .F. ) ;
#108 = DIRECTION ( 'NONE',  ( 0.0000000000000000000, 1.000000000000000000, 0.0000000000000000000 ) ) ;
#109 = CARTESIAN_POINT ( 'NONE',  ( 0.0000000000000000000, 1.100000000000000100, 0.0000000000000000000 ) ) ;
#110 = SURFACE_STYLE_USAGE ( .BOTH. , #201 ) ;
#111 = VERTEX_POINT ( 'NONE', #195 ) ;
#112 = APPLICATION_PROTOCOL_DEFINITION ( 'draft international standard', 'automotive_design', 1998, #15 ) ;
#113 = MANIFOLD_SOLID_BREP ( 'Í¹Ì¨-À­Éì1', #142 ) ;
#114 = EDGE_CURVE ( 'NONE', #125, #111, #127, .T. ) ;
#115 = ORIENTED_EDGE ( 'NONE', *, *, #69, .T. ) ;
#116 = ORIENTED_EDGE ( 'NONE', *, *, #96, .T. ) ;
#117 = PRODUCT_DEFINITION_SHAPE ( 'NONE', 'NONE',  #30 ) ;
#118 = STYLED_ITEM ( 'NONE', ( #163 ), #113 ) ;
#119 = ORIENTED_EDGE ( 'NONE', *, *, #179, .T. ) ;
#120 = DIRECTION ( 'NONE',  ( -1.387778780781445700E-016, -0.0000000000000000000, -1.000000000000000000 ) ) ;
#121 = LINE ( 'NONE', #64, #157 ) ;
#122 = DIRECTION ( 'NONE',  ( -0.0000000000000000000, -1.000000000000000000, -0.0000000000000000000 ) ) ;
#123 = DIRECTION ( 'NONE',  ( 1.000000000000000000, 0.0000000000000000000, 0.0000000000000000000 ) ) ;
#124 = DIRECTION ( 'NONE',  ( 0.0000000000000000000, -0.0000000000000000000, 1.000000000000000000 ) ) ;
#125 = VERTEX_POINT ( 'NONE', #151 ) ;
#126 = VECTOR ( 'NONE', #39, 1000.000000000000000 ) ;
#127 = LINE ( 'NONE', #139, #145 ) ;
#128 = FILL_AREA_STYLE ('',( #13 ) ) ;
#129 = APPLICATION_PROTOCOL_DEFINITION ( 'draft international standard', 'automotive_design', 1998, #74 ) ;
#130 = LINE ( 'NONE', #27, #136 ) ;
#131 = VECTOR ( 'NONE', #120, 1000.000000000000000 ) ;
#132 = AXIS2_PLACEMENT_3D ( 'NONE', #150, #108, #124 ) ;
#133 = VERTEX_POINT ( 'NONE', #55 ) ;
#134 = DIRECTION ( 'NONE',  ( -1.000000000000000000, -0.0000000000000000000, -0.0000000000000000000 ) ) ;
#135 = DIRECTION ( 'NONE',  ( 0.0000000000000000000, 0.0000000000000000000, -1.000000000000000000 ) ) ;
#136 = VECTOR ( 'NONE', #172, 1000.000000000000000 ) ;
#137 = ORIENTED_EDGE ( 'NONE', *, *, #89, .T. ) ;
#138 =( NAMED_UNIT ( * ) SI_UNIT ( $, .STERADIAN. ) SOLID_ANGLE_UNIT ( ) );
#139 = CARTESIAN_POINT ( 'NONE',  ( 12.50000000000000500, 1.100000000000000100, 12.50000000000000000 ) ) ;
#140 = ORIENTED_EDGE ( 'NONE', *, *, #66, .F. ) ;
#141 = DIRECTION ( 'NONE',  ( 1.387778780781445700E-016, 0.0000000000000000000, 1.000000000000000000 ) ) ;
#142 = CLOSED_SHELL ( 'NONE', ( #25, #102, #91, #37, #165, #180 ) ) ;
#143 = ADVANCED_BREP_SHAPE_REPRESENTATION ( '258503', ( #113, #38 ), #1 ) ;
#144 = EDGE_LOOP ( 'NONE', ( #24, #47, #192, #137 ) ) ;
#145 = VECTOR ( 'NONE', #42, 1000.000000000000000 ) ;
#146 = EDGE_CURVE ( 'NONE', #133, #70, #104, .T. ) ;
#147 = DIRECTION ( 'NONE',  ( -1.000000000000000000, 0.0000000000000000000, -0.0000000000000000000 ) ) ;
#148 = ORIENTED_EDGE ( 'NONE', *, *, #52, .T. ) ;
#149 = PLANE ( 'NONE',  #100 ) ;
#150 = CARTESIAN_POINT ( 'NONE',  ( 0.0000000000000000000, 0.0000000000000000000, 0.0000000000000000000 ) ) ;
#151 = CARTESIAN_POINT ( 'NONE',  ( 12.50000000000000500, 1.100000000000000100, 12.50000000000000000 ) ) ;
#152 = ORIENTED_EDGE ( 'NONE', *, *, #66, .T. ) ;
#153 = DIRECTION ( 'NONE',  ( 1.000000000000000000, 0.0000000000000000000, -0.0000000000000000000 ) ) ;
#154 = LINE ( 'NONE', #60, #33 ) ;
#155 = UNCERTAINTY_MEASURE_WITH_UNIT (LENGTH_MEASURE( 1.000000000000000100E-005 ), #90, 'distance_accuracy_value', 'NONE');
#156 = EDGE_LOOP ( 'NONE', ( #148, #45, #107, #34 ) ) ;
#157 = VECTOR ( 'NONE', #134, 1000.000000000000000 ) ;
#158 = SURFACE_STYLE_FILL_AREA ( #128 ) ;
#159 = FACE_OUTER_BOUND ( 'NONE', #169, .T. ) ;
#160 = ORIENTED_EDGE ( 'NONE', *, *, #146, .T. ) ;
#161 = PRODUCT_DEFINITION_FORMATION_WITH_SPECIFIED_SOURCE ( 'ÈÎºÎ', '', #62, .NOT_KNOWN. ) ;
#162 = LINE ( 'NONE', #88, #85 ) ;
#163 = PRESENTATION_STYLE_ASSIGNMENT (( #110 ) ) ;
#164 = PLANE ( 'NONE',  #106 ) ;
#165 = ADVANCED_FACE ( 'NONE', ( #159 ), #171, .T. ) ;
#166 = DIRECTION ( 'NONE',  ( -0.0000000000000000000, -1.000000000000000000, -0.0000000000000000000 ) ) ;
#167 = SURFACE_STYLE_FILL_AREA ( #173 ) ;
#168 = CARTESIAN_POINT ( 'NONE',  ( -12.49999999999999800, 0.0000000000000000000, -12.50000000000000000 ) ) ;
#169 = EDGE_LOOP ( 'NONE', ( #119, #77, #160, #116 ) ) ;
#170 = VECTOR ( 'NONE', #7, 1000.000000000000000 ) ;
#171 = PLANE ( 'NONE',  #87 ) ;
#172 = DIRECTION ( 'NONE',  ( -1.387778780781445700E-016, -0.0000000000000000000, -1.000000000000000000 ) ) ;
#173 = FILL_AREA_STYLE ('',( #182 ) ) ;
#174 = UNCERTAINTY_MEASURE_WITH_UNIT (LENGTH_MEASURE( 1.000000000000000100E-005 ), #3, 'distance_accuracy_value', 'NONE');
#175 = PLANE ( 'NONE',  #9 ) ;
#176 = ORIENTED_EDGE ( 'NONE', *, *, #114, .T. ) ;
#177 = VERTEX_POINT ( 'NONE', #199 ) ;
#178 = CARTESIAN_POINT ( 'NONE',  ( -12.49999999999999500, 1.100000000000000100, 12.50000000000000000 ) ) ;
#179 = EDGE_CURVE ( 'NONE', #125, #177, #130, .T. ) ;
#180 = ADVANCED_FACE ( 'NONE', ( #46 ), #40, .F. ) ;
#181 = DIRECTION ( 'NONE',  ( -1.387778780781445700E-016, 0.0000000000000000000, -1.000000000000000000 ) ) ;
#182 = FILL_AREA_STYLE_COLOUR ( '', #82 ) ;
#183 = ORIENTED_EDGE ( 'NONE', *, *, #146, .F. ) ;
#184 = CARTESIAN_POINT ( 'NONE',  ( 0.0000000000000000000, 0.0000000000000000000, 0.0000000000000000000 ) ) ;
#185 = DIRECTION ( 'NONE',  ( 0.0000000000000000000, -0.0000000000000000000, 1.000000000000000000 ) ) ;
#186 =( LENGTH_UNIT ( ) NAMED_UNIT ( * ) SI_UNIT ( .MILLI., .METRE. ) );
#187 = ORIENTED_EDGE ( 'NONE', *, *, #52, .F. ) ;
#188 = SURFACE_SIDE_STYLE ('',( #167 ) ) ;
#189 = PLANE ( 'NONE',  #198 ) ;
#190 = VERTEX_POINT ( 'NONE', #168 ) ;
#191 = PRESENTATION_STYLE_ASSIGNMENT (( #95 ) ) ;
#192 = ORIENTED_EDGE ( 'NONE', *, *, #96, .F. ) ;
#193 = FACE_OUTER_BOUND ( 'NONE', #63, .T. ) ;
#194 = DIRECTION ( 'NONE',  ( -1.000000000000000000, 0.0000000000000000000, 1.387778780781445700E-016 ) ) ;
#195 = CARTESIAN_POINT ( 'NONE',  ( 12.50000000000000500, 0.0000000000000000000, 12.50000000000000000 ) ) ;
#196 =( NAMED_UNIT ( * ) PLANE_ANGLE_UNIT ( ) SI_UNIT ( $, .RADIAN. ) );
#197 = PRODUCT_RELATED_PRODUCT_CATEGORY ( 'part', '', ( #62 ) ) ;
#198 = AXIS2_PLACEMENT_3D ( 'NONE', #4, #194, #86 ) ;
#199 = CARTESIAN_POINT ( 'NONE',  ( 12.50000000000000200, 1.100000000000000100, -12.50000000000000000 ) ) ;
#200 = VERTEX_POINT ( 'NONE', #53 ) ;
#201 = SURFACE_SIDE_STYLE ('',( #158 ) ) ;
#202 = VECTOR ( 'NONE', #122, 1000.000000000000000 ) ;
ENDSEC;
END-ISO-10303-21;
