ISO-10303-21;
HEADER;
FILE_DESCRIPTION (( 'STEP AP214' ),
    '1' );
FILE_NAME ('258505.STEP',
    '2019-08-06T09:23:25',
    ( 'user' ),
    ( 'Î¢ÈíÖÐ¹ú' ),
    'SwSTEP 2.0',
    'SolidWorks 2016',
    '' );
FILE_SCHEMA (( 'AUTOMOTIVE_DESIGN' ));
ENDSEC;

DATA;
#1 = AXIS2_PLACEMENT_3D ( 'NONE', #96, #30, #109 ) ;
#2 = PRESENTATION_STYLE_ASSIGNMENT (( #79 ) ) ;
#3 = AXIS2_PLACEMENT_3D ( 'NONE', #137, #31, #97 ) ;
#4 = DIRECTION ( 'NONE',  ( -0.0000000000000000000, -1.000000000000000000, -0.0000000000000000000 ) ) ;
#5 = FILL_AREA_STYLE_COLOUR ( '', #140 ) ;
#6 = CARTESIAN_POINT ( 'NONE',  ( 0.0000000000000000000, 0.0000000000000000000, 0.0000000000000000000 ) ) ;
#7 = FACE_OUTER_BOUND ( 'NONE', #49, .T. ) ;
#8 = SURFACE_SIDE_STYLE ('',( #78 ) ) ;
#9 = DIRECTION ( 'NONE',  ( 0.0000000000000000000, 0.0000000000000000000, 1.000000000000000000 ) ) ;
#10 = CIRCLE ( 'NONE', #101, 25.00000000000000000 ) ;
#11 = LINE ( 'NONE', #29, #38 ) ;
#12 = DIRECTION ( 'NONE',  ( 1.000000000000000000, 0.0000000000000000000, 0.0000000000000000000 ) ) ;
#13 = EDGE_CURVE ( 'NONE', #71, #98, #121, .T. ) ;
#14 = ORIENTED_EDGE ( 'NONE', *, *, #133, .F. ) ;
#15 = APPLICATION_PROTOCOL_DEFINITION ( 'draft international standard', 'automotive_design', 1998, #51 ) ;
#16 = FILL_AREA_STYLE ('',( #40 ) ) ;
#17 = SURFACE_SIDE_STYLE ('',( #61 ) ) ;
#18 = SHAPE_DEFINITION_REPRESENTATION ( #50, #47 ) ;
#19 = DIRECTION ( 'NONE',  ( 0.0000000000000000000, 1.000000000000000000, 0.0000000000000000000 ) ) ;
#20 = DIRECTION ( 'NONE',  ( 0.0000000000000000000, 0.0000000000000000000, 1.000000000000000000 ) ) ;
#21 = ORIENTED_EDGE ( 'NONE', *, *, #13, .F. ) ;
#22 =( LENGTH_UNIT ( ) NAMED_UNIT ( * ) SI_UNIT ( .MILLI., .METRE. ) );
#23 = UNCERTAINTY_MEASURE_WITH_UNIT (LENGTH_MEASURE( 1.000000000000000100E-005 ), #82, 'distance_accuracy_value', 'NONE');
#24 = VERTEX_POINT ( 'NONE', #123 ) ;
#25 = AXIS2_PLACEMENT_3D ( 'NONE', #88, #9, #12 ) ;
#26 = EDGE_LOOP ( 'NONE', ( #66, #138 ) ) ;
#27 = EDGE_CURVE ( 'NONE', #24, #94, #89, .T. ) ;
#28 = PRODUCT_RELATED_PRODUCT_CATEGORY ( 'part', '', ( #62 ) ) ;
#29 = CARTESIAN_POINT ( 'NONE',  ( 3.061616997868383000E-015, 1.100000000000000100, 25.00000000000000000 ) ) ;
#30 = DIRECTION ( 'NONE',  ( 0.0000000000000000000, 1.000000000000000000, 0.0000000000000000000 ) ) ;
#31 = DIRECTION ( 'NONE',  ( 0.0000000000000000000, 1.000000000000000000, 0.0000000000000000000 ) ) ;
#32 = DIRECTION ( 'NONE',  ( 0.0000000000000000000, 0.0000000000000000000, 1.000000000000000000 ) ) ;
#33 = AXIS2_PLACEMENT_3D ( 'NONE', #136, #54, #107 ) ;
#34 = FACE_OUTER_BOUND ( 'NONE', #106, .T. ) ;
#35 = EDGE_CURVE ( 'NONE', #71, #94, #11, .T. ) ;
#36 = FACE_OUTER_BOUND ( 'NONE', #102, .T. ) ;
#37 =( NAMED_UNIT ( * ) SI_UNIT ( $, .STERADIAN. ) SOLID_ANGLE_UNIT ( ) );
#38 = VECTOR ( 'NONE', #95, 1000.000000000000000 ) ;
#39 = STYLED_ITEM ( 'NONE', ( #2 ), #47 ) ;
#40 = FILL_AREA_STYLE_COLOUR ( '', #64 ) ;
#41 = CARTESIAN_POINT ( 'NONE',  ( 0.0000000000000000000, 1.100000000000000100, 0.0000000000000000000 ) ) ;
#42 = PRODUCT_DEFINITION_CONTEXT ( 'detailed design', #51, 'design' ) ;
#43 = CYLINDRICAL_SURFACE ( 'NONE', #65, 25.00000000000000000 ) ;
#44 = DIRECTION ( 'NONE',  ( 0.0000000000000000000, 0.0000000000000000000, -1.000000000000000000 ) ) ;
#45 = ORIENTED_EDGE ( 'NONE', *, *, #27, .T. ) ;
#46 =( NAMED_UNIT ( * ) PLANE_ANGLE_UNIT ( ) SI_UNIT ( $, .RADIAN. ) );
#47 = ADVANCED_BREP_SHAPE_REPRESENTATION ( '258505', ( #80, #25 ), #114 ) ;
#48 =( GEOMETRIC_REPRESENTATION_CONTEXT ( 3 ) GLOBAL_UNCERTAINTY_ASSIGNED_CONTEXT ( ( #23 ) ) GLOBAL_UNIT_ASSIGNED_CONTEXT ( ( #82, #55, #125 ) ) REPRESENTATION_CONTEXT ( 'NONE', 'WORKASPACE' ) );
#49 = EDGE_LOOP ( 'NONE', ( #21, #58, #76, #132 ) ) ;
#50 = PRODUCT_DEFINITION_SHAPE ( 'NONE', 'NONE',  #135 ) ;
#51 = APPLICATION_CONTEXT ( 'automotive_design' ) ;
#52 = AXIS2_PLACEMENT_3D ( 'NONE', #41, #112, #59 ) ;
#53 = CLOSED_SHELL ( 'NONE', ( #104, #119, #105, #93 ) ) ;
#54 = DIRECTION ( 'NONE',  ( 0.0000000000000000000, 1.000000000000000000, 0.0000000000000000000 ) ) ;
#55 =( NAMED_UNIT ( * ) PLANE_ANGLE_UNIT ( ) SI_UNIT ( $, .RADIAN. ) );
#56 = DIRECTION ( 'NONE',  ( 0.0000000000000000000, 0.0000000000000000000, -1.000000000000000000 ) ) ;
#57 = PRESENTATION_LAYER_ASSIGNMENT (  '', '', ( #39 ) ) ;
#58 = ORIENTED_EDGE ( 'NONE', *, *, #35, .T. ) ;
#59 = DIRECTION ( 'NONE',  ( 0.0000000000000000000, -0.0000000000000000000, 1.000000000000000000 ) ) ;
#60 =( NAMED_UNIT ( * ) PLANE_ANGLE_UNIT ( ) SI_UNIT ( $, .RADIAN. ) );
#61 = SURFACE_STYLE_FILL_AREA ( #16 ) ;
#62 = PRODUCT ( '258505', '258505', '', ( #90 ) ) ;
#63 = LINE ( 'NONE', #84, #117 ) ;
#64 = COLOUR_RGB ( '',1.000000000000000000, 1.000000000000000000, 1.000000000000000000 ) ;
#65 = AXIS2_PLACEMENT_3D ( 'NONE', #67, #4, #56 ) ;
#66 = ORIENTED_EDGE ( 'NONE', *, *, #133, .T. ) ;
#67 = CARTESIAN_POINT ( 'NONE',  ( 0.0000000000000000000, 1.100000000000000100, 0.0000000000000000000 ) ) ;
#68 = PRODUCT_DEFINITION_FORMATION_WITH_SPECIFIED_SOURCE ( 'ÈÎºÎ', '', #62, .NOT_KNOWN. ) ;
#69 = ORIENTED_EDGE ( 'NONE', *, *, #81, .T. ) ;
#70 = FILL_AREA_STYLE ('',( #5 ) ) ;
#71 = VERTEX_POINT ( 'NONE', #73 ) ;
#72 = SURFACE_STYLE_USAGE ( .BOTH. , #17 ) ;
#73 = CARTESIAN_POINT ( 'NONE',  ( 3.061616997868383000E-015, 1.100000000000000100, 25.00000000000000000 ) ) ;
#74 = DIRECTION ( 'NONE',  ( -0.0000000000000000000, -1.000000000000000000, -0.0000000000000000000 ) ) ;
#75 = CARTESIAN_POINT ( 'NONE',  ( 0.0000000000000000000, 1.100000000000000100, 0.0000000000000000000 ) ) ;
#76 = ORIENTED_EDGE ( 'NONE', *, *, #103, .T. ) ;
#77 = DIRECTION ( 'NONE',  ( 0.0000000000000000000, 1.000000000000000000, 0.0000000000000000000 ) ) ;
#78 = SURFACE_STYLE_FILL_AREA ( #70 ) ;
#79 = SURFACE_STYLE_USAGE ( .BOTH. , #8 ) ;
#80 = MANIFOLD_SOLID_BREP ( 'Í¹Ì¨-À­Éì1', #53 ) ;
#81 = EDGE_CURVE ( 'NONE', #98, #24, #63, .T. ) ;
#82 =( LENGTH_UNIT ( ) NAMED_UNIT ( * ) SI_UNIT ( .MILLI., .METRE. ) );
#83 = CARTESIAN_POINT ( 'NONE',  ( 3.061616997868383000E-015, 0.0000000000000000000, 25.00000000000000000 ) ) ;
#84 = CARTESIAN_POINT ( 'NONE',  ( 0.0000000000000000000, 1.100000000000000100, -25.00000000000000000 ) ) ;
#85 = PLANE ( 'NONE',  #3 ) ;
#86 = DIRECTION ( 'NONE',  ( -0.0000000000000000000, -1.000000000000000000, -0.0000000000000000000 ) ) ;
#87 = FACE_OUTER_BOUND ( 'NONE', #26, .T. ) ;
#88 = CARTESIAN_POINT ( 'NONE',  ( 0.0000000000000000000, 0.0000000000000000000, 0.0000000000000000000 ) ) ;
#89 = CIRCLE ( 'NONE', #1, 25.00000000000000000 ) ;
#90 = PRODUCT_CONTEXT ( 'NONE', #139, 'mechanical' ) ;
#91 = CYLINDRICAL_SURFACE ( 'NONE', #129, 25.00000000000000000 ) ;
#92 = ORIENTED_EDGE ( 'NONE', *, *, #27, .F. ) ;
#93 = ADVANCED_FACE ( 'NONE', ( #34 ), #85, .F. ) ;
#94 = VERTEX_POINT ( 'NONE', #83 ) ;
#95 = DIRECTION ( 'NONE',  ( -0.0000000000000000000, -1.000000000000000000, -0.0000000000000000000 ) ) ;
#96 = CARTESIAN_POINT ( 'NONE',  ( 0.0000000000000000000, 0.0000000000000000000, 0.0000000000000000000 ) ) ;
#97 = DIRECTION ( 'NONE',  ( 0.0000000000000000000, -0.0000000000000000000, 1.000000000000000000 ) ) ;
#98 = VERTEX_POINT ( 'NONE', #110 ) ;
#99 = PLANE ( 'NONE',  #52 ) ;
#100 =( LENGTH_UNIT ( ) NAMED_UNIT ( * ) SI_UNIT ( .MILLI., .METRE. ) );
#101 = AXIS2_PLACEMENT_3D ( 'NONE', #75, #19, #32 ) ;
#102 = EDGE_LOOP ( 'NONE', ( #134, #14, #69, #45 ) ) ;
#103 = EDGE_CURVE ( 'NONE', #94, #24, #120, .T. ) ;
#104 = ADVANCED_FACE ( 'NONE', ( #7 ), #43, .T. ) ;
#105 = ADVANCED_FACE ( 'NONE', ( #87 ), #99, .T. ) ;
#106 = EDGE_LOOP ( 'NONE', ( #92, #127 ) ) ;
#107 = DIRECTION ( 'NONE',  ( 0.0000000000000000000, 0.0000000000000000000, 1.000000000000000000 ) ) ;
#108 = MECHANICAL_DESIGN_GEOMETRIC_PRESENTATION_REPRESENTATION (  '', ( #115 ), #48 ) ;
#109 = DIRECTION ( 'NONE',  ( 0.0000000000000000000, 0.0000000000000000000, 1.000000000000000000 ) ) ;
#110 = CARTESIAN_POINT ( 'NONE',  ( 0.0000000000000000000, 1.100000000000000100, -25.00000000000000000 ) ) ;
#111 = AXIS2_PLACEMENT_3D ( 'NONE', #6, #77, #20 ) ;
#112 = DIRECTION ( 'NONE',  ( 0.0000000000000000000, 1.000000000000000000, 0.0000000000000000000 ) ) ;
#113 =( NAMED_UNIT ( * ) SI_UNIT ( $, .STERADIAN. ) SOLID_ANGLE_UNIT ( ) );
#114 =( GEOMETRIC_REPRESENTATION_CONTEXT ( 3 ) GLOBAL_UNCERTAINTY_ASSIGNED_CONTEXT ( ( #122 ) ) GLOBAL_UNIT_ASSIGNED_CONTEXT ( ( #100, #46, #113 ) ) REPRESENTATION_CONTEXT ( 'NONE', 'WORKASPACE' ) );
#115 = STYLED_ITEM ( 'NONE', ( #118 ), #80 ) ;
#116 = PRESENTATION_LAYER_ASSIGNMENT (  '', '', ( #115 ) ) ;
#117 = VECTOR ( 'NONE', #74, 1000.000000000000000 ) ;
#118 = PRESENTATION_STYLE_ASSIGNMENT (( #72 ) ) ;
#119 = ADVANCED_FACE ( 'NONE', ( #36 ), #91, .T. ) ;
#120 = CIRCLE ( 'NONE', #111, 25.00000000000000000 ) ;
#121 = CIRCLE ( 'NONE', #33, 25.00000000000000000 ) ;
#122 = UNCERTAINTY_MEASURE_WITH_UNIT (LENGTH_MEASURE( 1.000000000000000100E-005 ), #100, 'distance_accuracy_value', 'NONE');
#123 = CARTESIAN_POINT ( 'NONE',  ( 0.0000000000000000000, 0.0000000000000000000, -25.00000000000000000 ) ) ;
#124 =( GEOMETRIC_REPRESENTATION_CONTEXT ( 3 ) GLOBAL_UNCERTAINTY_ASSIGNED_CONTEXT ( ( #130 ) ) GLOBAL_UNIT_ASSIGNED_CONTEXT ( ( #22, #60, #37 ) ) REPRESENTATION_CONTEXT ( 'NONE', 'WORKASPACE' ) );
#125 =( NAMED_UNIT ( * ) SI_UNIT ( $, .STERADIAN. ) SOLID_ANGLE_UNIT ( ) );
#126 = CARTESIAN_POINT ( 'NONE',  ( 0.0000000000000000000, 1.100000000000000100, 0.0000000000000000000 ) ) ;
#127 = ORIENTED_EDGE ( 'NONE', *, *, #103, .F. ) ;
#128 = APPLICATION_PROTOCOL_DEFINITION ( 'draft international standard', 'automotive_design', 1998, #139 ) ;
#129 = AXIS2_PLACEMENT_3D ( 'NONE', #126, #86, #44 ) ;
#130 = UNCERTAINTY_MEASURE_WITH_UNIT (LENGTH_MEASURE( 1.000000000000000100E-005 ), #22, 'distance_accuracy_value', 'NONE');
#131 = MECHANICAL_DESIGN_GEOMETRIC_PRESENTATION_REPRESENTATION (  '', ( #39 ), #124 ) ;
#132 = ORIENTED_EDGE ( 'NONE', *, *, #81, .F. ) ;
#133 = EDGE_CURVE ( 'NONE', #98, #71, #10, .T. ) ;
#134 = ORIENTED_EDGE ( 'NONE', *, *, #35, .F. ) ;
#135 = PRODUCT_DEFINITION ( 'Î´Öª', '', #68, #42 ) ;
#136 = CARTESIAN_POINT ( 'NONE',  ( 0.0000000000000000000, 1.100000000000000100, 0.0000000000000000000 ) ) ;
#137 = CARTESIAN_POINT ( 'NONE',  ( 0.0000000000000000000, 0.0000000000000000000, 0.0000000000000000000 ) ) ;
#138 = ORIENTED_EDGE ( 'NONE', *, *, #13, .T. ) ;
#139 = APPLICATION_CONTEXT ( 'automotive_design' ) ;
#140 = COLOUR_RGB ( '',1.000000000000000000, 1.000000000000000000, 1.000000000000000000 ) ;
ENDSEC;
END-ISO-10303-21;
