ISO-10303-21;
HEADER;
FILE_DESCRIPTION (( 'STEP AP203' ),
    '1' );
FILE_NAME ('260022.STEP',
    '2025-05-26T02:51:11',
    ( 'Windows User' ),
    ( 'P R C' ),
    'SwSTEP 2.0',
    'SolidWorks 2020',
    '' );
FILE_SCHEMA (( 'CONFIG_CONTROL_DESIGN' ));
ENDSEC;

DATA;
#1 = VERTEX_POINT ( 'NONE', #19 ) ;
#2 = DATE_AND_TIME ( #92, #101 ) ;
#3 =( GEOMETRIC_REPRESENTATION_CONTEXT ( 3 ) GLOBAL_UNCERTAINTY_ASSIGNED_CONTEXT ( ( #103 ) ) GLOBAL_UNIT_ASSIGNED_CONTEXT ( ( #53, #25, #78 ) ) REPRESENTATION_CONTEXT ( 'NONE', 'WORKASPACE' ) );
#4 = DATE_AND_TIME ( #127, #18 ) ;
#5 = PERSON_AND_ORGANIZATION ( #41, #62 ) ;
#6 = ORIENTED_EDGE ( 'NONE', *, *, #91, .F. ) ;
#7 = APPLICATION_PROTOCOL_DEFINITION ( 'international standard', 'config_control_design', 1994, #57 ) ;
#8 = ORIENTED_EDGE ( 'NONE', *, *, #91, .T. ) ;
#9 = APPLICATION_PROTOCOL_DEFINITION ( 'international standard', 'config_control_design', 1994, #36 ) ;
#10 = LOCAL_TIME ( 10, 51, 11.00000000000000000, #95 ) ;
#11 = CLOSED_SHELL ( 'NONE', ( #123, #96, #119 ) ) ;
#12 = PERSON_AND_ORGANIZATION_ROLE ( 'classification_officer' ) ;
#13 = PERSON_AND_ORGANIZATION ( #41, #62 ) ;
#14 = PERSON_AND_ORGANIZATION ( #41, #62 ) ;
#15 = FACE_OUTER_BOUND ( 'NONE', #99, .T. ) ;
#16 = CARTESIAN_POINT ( 'NONE',  ( 263.1163036661670276, 77.29317934901541776, 0.000000000000000000 ) ) ;
#17 = CC_DESIGN_DATE_AND_TIME_ASSIGNMENT ( #4, #42, ( #50 ) ) ;
#18 = LOCAL_TIME ( 10, 51, 11.00000000000000000, #84 ) ;
#19 = CARTESIAN_POINT ( 'NONE',  ( 260.1163036661671413, 77.29317934901541776, 15.00000000000000000 ) ) ;
#20 = PERSON_AND_ORGANIZATION_ROLE ( 'design_supplier' ) ;
#21 = CALENDAR_DATE ( 2025, 26, 5 ) ;
#22 = DESIGN_CONTEXT ( 'detailed design', #57, 'design' ) ;
#23 = CC_DESIGN_PERSON_AND_ORGANIZATION_ASSIGNMENT ( #87, #20, ( #115 ) ) ;
#24 = DIRECTION ( 'NONE',  ( -1.000000000000000000, -0.000000000000000000, -0.000000000000000000 ) ) ;
#25 =( NAMED_UNIT ( * ) PLANE_ANGLE_UNIT ( ) SI_UNIT ( $, .RADIAN. ) );
#26 = FACE_OUTER_BOUND ( 'NONE', #49, .T. ) ;
#27 = AXIS2_PLACEMENT_3D ( 'NONE', #129, #66, #80 ) ;
#28 = CC_DESIGN_PERSON_AND_ORGANIZATION_ASSIGNMENT ( #33, #76, ( #50 ) ) ;
#29 = CC_DESIGN_APPROVAL ( #44, ( #50 ) ) ;
#30 = PLANE ( 'NONE',  #46 ) ;
#31 = PERSON_AND_ORGANIZATION ( #41, #62 ) ;
#32 = MANIFOLD_SOLID_BREP ( 'Ðý×ª1', #11 ) ;
#33 = PERSON_AND_ORGANIZATION ( #41, #62 ) ;
#34 = APPROVAL_STATUS ( 'not_yet_approved' ) ;
#35 = DATE_TIME_ROLE ( 'classification_date' ) ;
#36 = APPLICATION_CONTEXT ( 'configuration controlled 3d designs of mechanical parts and assemblies' ) ;
#37 = DIRECTION ( 'NONE',  ( 0.000000000000000000, 0.000000000000000000, 1.000000000000000000 ) ) ;
#38 = APPROVAL_ROLE ( '' ) ;
#39 = PLANE ( 'NONE',  #72 ) ;
#40 = CC_DESIGN_APPROVAL ( #71, ( #115 ) ) ;
#41 = PERSON ( 'Î´Ö¸¶¨', 'Î´Ö¸¶¨', 'Î´Ö¸¶¨', ('Î´Ö¸¶¨'), ('Î´Ö¸¶¨'), ('Î´Ö¸¶¨') ) ;
#42 = DATE_TIME_ROLE ( 'creation_date' ) ;
#43 = CC_DESIGN_SECURITY_CLASSIFICATION ( #135, ( #115 ) ) ;
#44 = APPROVAL ( #89, 'Î´Ö¸¶¨' ) ;
#45 = APPROVAL_DATE_TIME ( #65, #44 ) ;
#46 = AXIS2_PLACEMENT_3D ( 'NONE', #74, #125, #117 ) ;
#47 = APPROVAL_ROLE ( '' ) ;
#48 = EDGE_LOOP ( 'NONE', ( #6 ) ) ;
#49 = EDGE_LOOP ( 'NONE', ( #60 ) ) ;
#50 = PRODUCT_DEFINITION ( 'Î´Öª', '', #115, #22 ) ;
#51 = LOCAL_TIME ( 10, 51, 11.00000000000000000, #68 ) ;
#52 = AXIS2_PLACEMENT_3D ( 'NONE', #16, #59, #132 ) ;
#53 =( LENGTH_UNIT ( ) NAMED_UNIT ( * ) SI_UNIT ( .MILLI., .METRE. ) );
#54 = COORDINATED_UNIVERSAL_TIME_OFFSET ( 8, 0, .AHEAD. ) ;
#55 = APPROVAL_DATE_TIME ( #77, #61 ) ;
#56 = PERSON_AND_ORGANIZATION_ROLE ( 'creator' ) ;
#57 = APPLICATION_CONTEXT ( 'configuration controlled 3d designs of mechanical parts and assemblies' ) ;
#58 = PERSON_AND_ORGANIZATION_ROLE ( 'design_owner' ) ;
#59 = DIRECTION ( 'NONE',  ( 1.000000000000000000, 0.000000000000000000, 0.000000000000000000 ) ) ;
#60 = ORIENTED_EDGE ( 'NONE', *, *, #73, .F. ) ;
#61 = APPROVAL ( #34, 'Î´Ö¸¶¨' ) ;
#62 = ORGANIZATION ( 'Î´Ö¸¶¨', 'Î´Ö¸¶¨', '' ) ;
#63 = VERTEX_POINT ( 'NONE', #104 ) ;
#64 = COORDINATED_UNIVERSAL_TIME_OFFSET ( 8, 0, .AHEAD. ) ;
#65 = DATE_AND_TIME ( #111, #51 ) ;
#66 = DIRECTION ( 'NONE',  ( 0.000000000000000000, 0.000000000000000000, 1.000000000000000000 ) ) ;
#67 = DIRECTION ( 'NONE',  ( 0.000000000000000000, 0.000000000000000000, 1.000000000000000000 ) ) ;
#68 = COORDINATED_UNIVERSAL_TIME_OFFSET ( 8, 0, .AHEAD. ) ;
#69 = DIRECTION ( 'NONE',  ( 1.000000000000000000, 0.000000000000000000, 0.000000000000000000 ) ) ;
#70 = APPROVAL_PERSON_ORGANIZATION ( #31, #61, #47 ) ;
#71 = APPROVAL ( #118, 'Î´Ö¸¶¨' ) ;
#72 = AXIS2_PLACEMENT_3D ( 'NONE', #113, #81, #122 ) ;
#73 = EDGE_CURVE ( 'NONE', #1, #1, #86, .T. ) ;
#74 = CARTESIAN_POINT ( 'NONE',  ( 260.1163036661671413, 77.29317934901541776, 0.000000000000000000 ) ) ;
#75 = APPROVAL_ROLE ( '' ) ;
#76 = PERSON_AND_ORGANIZATION_ROLE ( 'creator' ) ;
#77 = DATE_AND_TIME ( #88, #10 ) ;
#78 =( NAMED_UNIT ( * ) SI_UNIT ( $, .STERADIAN. ) SOLID_ANGLE_UNIT ( ) );
#79 = FACE_OUTER_BOUND ( 'NONE', #48, .T. ) ;
#80 = DIRECTION ( 'NONE',  ( 1.000000000000000000, 0.000000000000000000, 0.000000000000000000 ) ) ;
#81 = DIRECTION ( 'NONE',  ( 1.000000000000000000, 0.000000000000000000, 0.000000000000000000 ) ) ;
#82 = CC_DESIGN_PERSON_AND_ORGANIZATION_ASSIGNMENT ( #14, #58, ( #133 ) ) ;
#83 = CC_DESIGN_DATE_AND_TIME_ASSIGNMENT ( #2, #35, ( #135 ) ) ;
#84 = COORDINATED_UNIVERSAL_TIME_OFFSET ( 8, 0, .AHEAD. ) ;
#85 = CC_DESIGN_APPROVAL ( #61, ( #135 ) ) ;
#86 = CIRCLE ( 'NONE', #116, 15.00000000000000000 ) ;
#87 = PERSON_AND_ORGANIZATION ( #41, #62 ) ;
#88 = CALENDAR_DATE ( 2025, 26, 5 ) ;
#89 = APPROVAL_STATUS ( 'not_yet_approved' ) ;
#90 = CARTESIAN_POINT ( 'NONE',  ( 260.1163036661671413, 77.29317934901541776, 0.000000000000000000 ) ) ;
#91 = EDGE_CURVE ( 'NONE', #63, #63, #124, .T. ) ;
#92 = CALENDAR_DATE ( 2025, 26, 5 ) ;
#93 = APPROVAL_DATE_TIME ( #107, #71 ) ;
#94 = APPROVAL_PERSON_ORGANIZATION ( #120, #71, #75 ) ;
#95 = COORDINATED_UNIVERSAL_TIME_OFFSET ( 8, 0, .AHEAD. ) ;
#96 = ADVANCED_FACE ( 'NONE', ( #110, #79 ), #121, .T. ) ;
#97 = EDGE_LOOP ( 'NONE', ( #130 ) ) ;
#98 = CARTESIAN_POINT ( 'NONE',  ( 254.0008019926160330, 77.29317934901541776, 0.000000000000000000 ) ) ;
#99 = EDGE_LOOP ( 'NONE', ( #8 ) ) ;
#100 = PRODUCT_RELATED_PRODUCT_CATEGORY ( 'detail', '', ( #133 ) ) ;
#101 = LOCAL_TIME ( 10, 51, 11.00000000000000000, #54 ) ;
#102 = AXIS2_PLACEMENT_3D ( 'NONE', #98, #24, #67 ) ;
#103 = UNCERTAINTY_MEASURE_WITH_UNIT (LENGTH_MEASURE( 1.000000000000000082E-05 ), #53, 'distance_accuracy_value', 'NONE');
#104 = CARTESIAN_POINT ( 'NONE',  ( 263.1163036661670276, 77.29317934901541776, -15.00000000000000000 ) ) ;
#105 = SECURITY_CLASSIFICATION_LEVEL ( 'unclassified' ) ;
#106 = SHAPE_DEFINITION_REPRESENTATION ( #112, #114 ) ;
#107 = DATE_AND_TIME ( #21, #126 ) ;
#108 = CC_DESIGN_PERSON_AND_ORGANIZATION_ASSIGNMENT ( #128, #12, ( #135 ) ) ;
#109 = APPROVAL_PERSON_ORGANIZATION ( #5, #44, #38 ) ;
#110 = FACE_OUTER_BOUND ( 'NONE', #97, .T. ) ;
#111 = CALENDAR_DATE ( 2025, 26, 5 ) ;
#112 = PRODUCT_DEFINITION_SHAPE ( 'NONE', 'NONE',  #50 ) ;
#113 = CARTESIAN_POINT ( 'NONE',  ( 263.1163036661670276, 77.29317934901541776, 0.000000000000000000 ) ) ;
#114 = ADVANCED_BREP_SHAPE_REPRESENTATION ( '260022', ( #32, #27 ), #3 ) ;
#115 = PRODUCT_DEFINITION_FORMATION_WITH_SPECIFIED_SOURCE ( 'ÈÎºÎ', '', #133, .NOT_KNOWN. ) ;
#116 = AXIS2_PLACEMENT_3D ( 'NONE', #90, #69, #37 ) ;
#117 = DIRECTION ( 'NONE',  ( 0.000000000000000000, 0.000000000000000000, -1.000000000000000000 ) ) ;
#118 = APPROVAL_STATUS ( 'not_yet_approved' ) ;
#119 = ADVANCED_FACE ( 'NONE', ( #15 ), #39, .T. ) ;
#120 = PERSON_AND_ORGANIZATION ( #41, #62 ) ;
#121 = CYLINDRICAL_SURFACE ( 'NONE', #102, 15.00000000000000000 ) ;
#122 = DIRECTION ( 'NONE',  ( 0.000000000000000000, 0.000000000000000000, -1.000000000000000000 ) ) ;
#123 = ADVANCED_FACE ( 'NONE', ( #26 ), #30, .F. ) ;
#124 = CIRCLE ( 'NONE', #52, 15.00000000000000000 ) ;
#125 = DIRECTION ( 'NONE',  ( 1.000000000000000000, -0.000000000000000000, 0.000000000000000000 ) ) ;
#126 = LOCAL_TIME ( 10, 51, 11.00000000000000000, #64 ) ;
#127 = CALENDAR_DATE ( 2025, 26, 5 ) ;
#128 = PERSON_AND_ORGANIZATION ( #41, #62 ) ;
#129 = CARTESIAN_POINT ( 'NONE',  ( 0.000000000000000000, 0.000000000000000000, 0.000000000000000000 ) ) ;
#130 = ORIENTED_EDGE ( 'NONE', *, *, #73, .T. ) ;
#131 = MECHANICAL_CONTEXT ( 'NONE', #36, 'mechanical' ) ;
#132 = DIRECTION ( 'NONE',  ( 0.000000000000000000, 0.000000000000000000, -1.000000000000000000 ) ) ;
#133 = PRODUCT ( '260022', '260022', '', ( #131 ) ) ;
#134 = CC_DESIGN_PERSON_AND_ORGANIZATION_ASSIGNMENT ( #13, #56, ( #115 ) ) ;
#135 = SECURITY_CLASSIFICATION ( '', '', #105 ) ;
ENDSEC;
END-ISO-10303-21;
