ISO-10303-21;
HEADER;
FILE_DESCRIPTION (( 'STEP AP203' ),
    '1' );
FILE_NAME ('270642.step',
    '2024-12-24T02:21:51',
    ( '' ),
    ( '' ),
    'SwSTEP 2.0',
    'SolidWorks 2020',
    '' );
FILE_SCHEMA (( 'CONFIG_CONTROL_DESIGN' ));
ENDSEC;

DATA;
#1 = ADVANCED_FACE ( 'NONE', ( #204 ), #269, .F. ) ;
#2 = PERSON_AND_ORGANIZATION ( #216, #65 ) ;
#3 = CC_DESIGN_SECURITY_CLASSIFICATION ( #111, ( #48 ) ) ;
#4 = COORDINATED_UNIVERSAL_TIME_OFFSET ( 8, 0, .AHEAD. ) ;
#5 = DIRECTION ( 'NONE',  ( 0.000000000000000000, 1.000000000000000000, 0.000000000000000000 ) ) ;
#6 = FACE_OUTER_BOUND ( 'NONE', #97, .T. ) ;
#7 = EDGE_CURVE ( 'NONE', #229, #11, #256, .T. ) ;
#8 = VECTOR ( 'NONE', #22, 1000.000000000000000 ) ;
#9 = MECHANICAL_CONTEXT ( 'NONE', #146, 'mechanical' ) ;
#10 = APPROVAL ( #68, 'Î´Ö¸¶¨' ) ;
#11 = VERTEX_POINT ( 'NONE', #121 ) ;
#12 = CARTESIAN_POINT ( 'NONE',  ( 0.000000000000000000, 0.000000000000000000, -10.00000000000000000 ) ) ;
#13 = ORIENTED_EDGE ( 'NONE', *, *, #150, .T. ) ;
#14 = VECTOR ( 'NONE', #49, 1000.000000000000000 ) ;
#15 = EDGE_CURVE ( 'NONE', #249, #201, #47, .T. ) ;
#16 = AXIS2_PLACEMENT_3D ( 'NONE', #117, #183, #119 ) ;
#17 = FACE_OUTER_BOUND ( 'NONE', #33, .T. ) ;
#18 = CARTESIAN_POINT ( 'NONE',  ( -9.999999999999998224, -12.50000000000000355, 10.00000000000000000 ) ) ;
#19 = CARTESIAN_POINT ( 'NONE',  ( 10.00000000000000178, -12.50000000000000000, 10.00000000000000000 ) ) ;
#20 = PRODUCT_RELATED_PRODUCT_CATEGORY ( 'detail', '', ( #96 ) ) ;
#21 = FACE_OUTER_BOUND ( 'NONE', #205, .T. ) ;
#22 = DIRECTION ( 'NONE',  ( -0.000000000000000000, -0.000000000000000000, -1.000000000000000000 ) ) ;
#23 = CC_DESIGN_PERSON_AND_ORGANIZATION_ASSIGNMENT ( #95, #98, ( #96 ) ) ;
#24 = CALENDAR_DATE ( 2024, 24, 12 ) ;
#25 = LOCAL_TIME ( 10, 21, 51.00000000000000000, #145 ) ;
#26 = DIRECTION ( 'NONE',  ( -1.734723475976807094E-16, 1.000000000000000000, 0.000000000000000000 ) ) ;
#27 = COORDINATED_UNIVERSAL_TIME_OFFSET ( 8, 0, .AHEAD. ) ;
#28 = DIRECTION ( 'NONE',  ( 1.000000000000000000, 1.734859017132303976E-16, 0.000000000000000000 ) ) ;
#29 = EDGE_LOOP ( 'NONE', ( #122, #187, #56, #182, #227 ) ) ;
#30 = CC_DESIGN_DATE_AND_TIME_ASSIGNMENT ( #166, #59, ( #111 ) ) ;
#31 = AXIS2_PLACEMENT_3D ( 'NONE', #85, #274, #235 ) ;
#32 = DIRECTION ( 'NONE',  ( 0.000000000000000000, 0.000000000000000000, -1.000000000000000000 ) ) ;
#33 = EDGE_LOOP ( 'NONE', ( #268, #100, #77, #161, #55 ) ) ;
#34 = ORIENTED_EDGE ( 'NONE', *, *, #273, .F. ) ;
#35 = DIRECTION ( 'NONE',  ( 1.734723475976807094E-16, -1.000000000000000000, 0.000000000000000000 ) ) ;
#36 = CARTESIAN_POINT ( 'NONE',  ( 15.00000000000012434, 0.000000000000000000, 999.0000000000001137 ) ) ;
#37 = CARTESIAN_POINT ( 'NONE',  ( -9.999999999999998224, -12.50000000000000355, 10.00000000000000000 ) ) ;
#38 = APPROVAL_DATE_TIME ( #80, #210 ) ;
#39 = DIRECTION ( 'NONE',  ( -0.000000000000000000, -0.000000000000000000, -1.000000000000000000 ) ) ;
#40 = ADVANCED_FACE ( 'NONE', ( #144 ), #148, .F. ) ;
#41 = DIRECTION ( 'NONE',  ( -1.000000000000000000, 0.000000000000000000, 1.110223024625156540E-16 ) ) ;
#42 = AXIS2_PLACEMENT_3D ( 'NONE', #105, #60, #258 ) ;
#43 = PERSON_AND_ORGANIZATION_ROLE ( 'classification_officer' ) ;
#44 = DIRECTION ( 'NONE',  ( 1.000000000000000000, 1.734723475976807094E-16, -0.000000000000000000 ) ) ;
#45 = PERSON_AND_ORGANIZATION ( #216, #65 ) ;
#46 =( GEOMETRIC_REPRESENTATION_CONTEXT ( 3 ) GLOBAL_UNCERTAINTY_ASSIGNED_CONTEXT ( ( #63 ) ) GLOBAL_UNIT_ASSIGNED_CONTEXT ( ( #200, #76, #53 ) ) REPRESENTATION_CONTEXT ( 'NONE', 'WORKASPACE' ) );
#47 = CIRCLE ( 'NONE', #207, 999.9874999218741323 ) ;
#48 = PRODUCT_DEFINITION_FORMATION_WITH_SPECIFIED_SOURCE ( 'ÈÎºÎ', '', #96, .NOT_KNOWN. ) ;
#49 = DIRECTION ( 'NONE',  ( -0.000000000000000000, -1.000000000000000000, -0.000000000000000000 ) ) ;
#50 = EDGE_CURVE ( 'NONE', #201, #270, #126, .T. ) ;
#51 = ORIENTED_EDGE ( 'NONE', *, *, #103, .T. ) ;
#52 = CARTESIAN_POINT ( 'NONE',  ( 10.00000000000000178, -12.50000000000000000, -10.00000000000000000 ) ) ;
#53 =( NAMED_UNIT ( * ) SI_UNIT ( $, .STERADIAN. ) SOLID_ANGLE_UNIT ( ) );
#54 = DIRECTION ( 'NONE',  ( 1.000000000000000000, 0.000000000000000000, -0.000000000000000000 ) ) ;
#55 = ORIENTED_EDGE ( 'NONE', *, *, #262, .T. ) ;
#56 = ORIENTED_EDGE ( 'NONE', *, *, #50, .T. ) ;
#57 = SHAPE_DEFINITION_REPRESENTATION ( #106, #110 ) ;
#58 = DIRECTION ( 'NONE',  ( 1.000000000000000000, 0.000000000000000000, 0.000000000000000000 ) ) ;
#59 = DATE_TIME_ROLE ( 'classification_date' ) ;
#60 = DIRECTION ( 'NONE',  ( 1.000000000000000000, 0.000000000000000000, 0.000000000000000000 ) ) ;
#61 = LINE ( 'NONE', #237, #135 ) ;
#62 = VECTOR ( 'NONE', #196, 1000.000000000000000 ) ;
#63 = UNCERTAINTY_MEASURE_WITH_UNIT (LENGTH_MEASURE( 1.000000000000000082E-05 ), #200, 'distance_accuracy_value', 'NONE');
#64 = EDGE_CURVE ( 'NONE', #270, #142, #276, .T. ) ;
#65 = ORGANIZATION ( 'Î´Ö¸¶¨', 'Î´Ö¸¶¨', '' ) ;
#66 = CARTESIAN_POINT ( 'NONE',  ( 15.00000000000012434, 0.000000000000000000, 999.0000000000001137 ) ) ;
#67 = ORIENTED_EDGE ( 'NONE', *, *, #7, .F. ) ;
#68 = APPROVAL_STATUS ( 'not_yet_approved' ) ;
#69 = PERSON_AND_ORGANIZATION ( #216, #65 ) ;
#70 = DIRECTION ( 'NONE',  ( 1.734723475976807094E-16, -1.000000000000000000, 0.000000000000000000 ) ) ;
#71 = ADVANCED_FACE ( 'NONE', ( #21 ), #84, .F. ) ;
#72 = ORIENTED_EDGE ( 'NONE', *, *, #127, .F. ) ;
#73 = CARTESIAN_POINT ( 'NONE',  ( -10.00000000000000000, -12.50000000000000355, -0.6092986762377128329 ) ) ;
#74 = APPLICATION_PROTOCOL_DEFINITION ( 'international standard', 'config_control_design', 1994, #146 ) ;
#75 = EDGE_LOOP ( 'NONE', ( #215, #123, #79, #163 ) ) ;
#76 =( NAMED_UNIT ( * ) PLANE_ANGLE_UNIT ( ) SI_UNIT ( $, .RADIAN. ) );
#77 = ORIENTED_EDGE ( 'NONE', *, *, #113, .T. ) ;
#78 = ORIENTED_EDGE ( 'NONE', *, *, #150, .F. ) ;
#79 = ORIENTED_EDGE ( 'NONE', *, *, #243, .F. ) ;
#80 = DATE_AND_TIME ( #188, #25 ) ;
#81 = DIRECTION ( 'NONE',  ( 0.000000000000000000, 0.000000000000000000, 1.000000000000000000 ) ) ;
#82 = CC_DESIGN_PERSON_AND_ORGANIZATION_ASSIGNMENT ( #45, #197, ( #48 ) ) ;
#83 = AXIS2_PLACEMENT_3D ( 'NONE', #108, #35, #189 ) ;
#84 = SPHERICAL_SURFACE ( 'NONE', #168, 1000.000000000000000 ) ;
#85 = CARTESIAN_POINT ( 'NONE',  ( 15.00000000000012612, -12.49999999999999822, 999.0000000000001137 ) ) ;
#86 = CARTESIAN_POINT ( 'NONE',  ( 10.00000000000000178, 0.000000000000000000, -0.9874999218738578222 ) ) ;
#87 = LOCAL_TIME ( 10, 21, 51.00000000000000000, #27 ) ;
#88 = CC_DESIGN_APPROVAL ( #10, ( #48 ) ) ;
#89 = APPROVAL_ROLE ( '' ) ;
#90 = APPROVAL_ROLE ( '' ) ;
#91 = CARTESIAN_POINT ( 'NONE',  ( -9.999999999999998224, -12.50000000000000355, -10.00000000000000000 ) ) ;
#92 = DIRECTION ( 'NONE',  ( 0.000000000000000000, -0.000000000000000000, 1.000000000000000000 ) ) ;
#93 = CARTESIAN_POINT ( 'NONE',  ( 10.00000000000000178, 12.50000000000000000, -10.00000000000000000 ) ) ;
#94 = CC_DESIGN_APPROVAL ( #210, ( #111 ) ) ;
#95 = PERSON_AND_ORGANIZATION ( #216, #65 ) ;
#96 = PRODUCT ( '270642', '270642', '', ( #9 ) ) ;
#97 = EDGE_LOOP ( 'NONE', ( #272, #13, #51, #102 ) ) ;
#98 = PERSON_AND_ORGANIZATION_ROLE ( 'design_owner' ) ;
#99 = EDGE_LOOP ( 'NONE', ( #139, #164, #154, #34 ) ) ;
#100 = ORIENTED_EDGE ( 'NONE', *, *, #7, .T. ) ;
#101 = CC_DESIGN_APPROVAL ( #198, ( #254 ) ) ;
#102 = ORIENTED_EDGE ( 'NONE', *, *, #240, .T. ) ;
#103 = EDGE_CURVE ( 'NONE', #229, #266, #193, .T. ) ;
#104 = CARTESIAN_POINT ( 'NONE',  ( -9.999999999999996447, 12.49999999999999645, -0.6092986762377128329 ) ) ;
#105 = CARTESIAN_POINT ( 'NONE',  ( -9.999999999999998224, 0.000000000000000000, 999.0000000000001137 ) ) ;
#106 = PRODUCT_DEFINITION_SHAPE ( 'NONE', 'NONE',  #254 ) ;
#107 = DIRECTION ( 'NONE',  ( -1.000000000000000000, 0.000000000000000000, 0.000000000000000000 ) ) ;
#108 = CARTESIAN_POINT ( 'NONE',  ( 10.00000000000000178, 12.50000000000000000, 10.00000000000000000 ) ) ;
#109 = AXIS2_PLACEMENT_3D ( 'NONE', #160, #26, #267 ) ;
#110 = ADVANCED_BREP_SHAPE_REPRESENTATION ( '270642', ( #233, #16 ), #46 ) ;
#111 = SECURITY_CLASSIFICATION ( '', '', #175 ) ;
#112 = DATE_AND_TIME ( #156, #87 ) ;
#113 = EDGE_CURVE ( 'NONE', #11, #118, #153, .T. ) ;
#114 = CARTESIAN_POINT ( 'NONE',  ( 10.00000000000000178, -12.50000000000000000, -10.00000000000000000 ) ) ;
#115 = COORDINATED_UNIVERSAL_TIME_OFFSET ( 8, 0, .AHEAD. ) ;
#116 = CARTESIAN_POINT ( 'NONE',  ( -9.999999999999998224, 12.49999999999999645, 10.00000000000000000 ) ) ;
#117 = CARTESIAN_POINT ( 'NONE',  ( 0.000000000000000000, 0.000000000000000000, 0.000000000000000000 ) ) ;
#118 = VERTEX_POINT ( 'NONE', #104 ) ;
#119 = DIRECTION ( 'NONE',  ( 1.000000000000000000, 0.000000000000000000, 0.000000000000000000 ) ) ;
#120 = VECTOR ( 'NONE', #192, 1000.000000000000000 ) ;
#121 = CARTESIAN_POINT ( 'NONE',  ( -9.999999999999998224, 0.000000000000000000, -0.6874511566101748627 ) ) ;
#122 = ORIENTED_EDGE ( 'NONE', *, *, #143, .F. ) ;
#123 = ORIENTED_EDGE ( 'NONE', *, *, #158, .F. ) ;
#124 = ADVANCED_FACE ( 'NONE', ( #169 ), #147, .F. ) ;
#125 = VECTOR ( 'NONE', #44, 1000.000000000000000 ) ;
#126 = CIRCLE ( 'NONE', #133, 999.9874999218741323 ) ;
#127 = EDGE_CURVE ( 'NONE', #11, #201, #191, .T. ) ;
#128 = DIRECTION ( 'NONE',  ( 0.000000000000000000, 1.000000000000000000, -0.000000000000000000 ) ) ;
#129 = DIRECTION ( 'NONE',  ( 0.000000000000000000, 0.000000000000000000, -1.000000000000000000 ) ) ;
#130 = DIRECTION ( 'NONE',  ( -1.000000000000000000, -1.734723475976807094E-16, 0.000000000000000000 ) ) ;
#131 = DIRECTION ( 'NONE',  ( 0.000000000000000000, -1.000000000000000000, 0.000000000000000000 ) ) ;
#132 = APPROVAL_PERSON_ORGANIZATION ( #69, #10, #89 ) ;
#133 = AXIS2_PLACEMENT_3D ( 'NONE', #261, #107, #167 ) ;
#134 = CALENDAR_DATE ( 2024, 24, 12 ) ;
#135 = VECTOR ( 'NONE', #130, 1000.000000000000000 ) ;
#136 = PERSON_AND_ORGANIZATION_ROLE ( 'creator' ) ;
#137 = APPROVAL_PERSON_ORGANIZATION ( #180, #198, #90 ) ;
#138 = CARTESIAN_POINT ( 'NONE',  ( 15.00000000000012257, 12.50000000000000178, 999.0000000000001137 ) ) ;
#139 = ORIENTED_EDGE ( 'NONE', *, *, #113, .F. ) ;
#140 = CARTESIAN_POINT ( 'NONE',  ( -9.999999999999998224, 0.000000000000000000, 999.0000000000001137 ) ) ;
#141 = ORIENTED_EDGE ( 'NONE', *, *, #273, .T. ) ;
#142 = VERTEX_POINT ( 'NONE', #170 ) ;
#143 = EDGE_CURVE ( 'NONE', #249, #224, #190, .T. ) ;
#144 = FACE_OUTER_BOUND ( 'NONE', #29, .T. ) ;
#145 = COORDINATED_UNIVERSAL_TIME_OFFSET ( 8, 0, .AHEAD. ) ;
#146 = APPLICATION_CONTEXT ( 'configuration controlled 3d designs of mechanical parts and assemblies' ) ;
#147 = PLANE ( 'NONE',  #83 ) ;
#148 = PLANE ( 'NONE',  #245 ) ;
#149 = PLANE ( 'NONE',  #218 ) ;
#150 = EDGE_CURVE ( 'NONE', #270, #229, #260, .T. ) ;
#151 = CC_DESIGN_DATE_AND_TIME_ASSIGNMENT ( #195, #264, ( #254 ) ) ;
#152 = APPROVAL_PERSON_ORGANIZATION ( #232, #210, #236 ) ;
#153 = CIRCLE ( 'NONE', #42, 999.6874511566103365 ) ;
#154 = ORIENTED_EDGE ( 'NONE', *, *, #15, .F. ) ;
#155 = APPROVAL_DATE_TIME ( #263, #198 ) ;
#156 = CALENDAR_DATE ( 2024, 24, 12 ) ;
#157 = CARTESIAN_POINT ( 'NONE',  ( 10.00000000000000178, 12.50000000000000000, -0.9093708931823263342 ) ) ;
#158 = EDGE_CURVE ( 'NONE', #224, #159, #61, .T. ) ;
#159 = VERTEX_POINT ( 'NONE', #214 ) ;
#160 = CARTESIAN_POINT ( 'NONE',  ( 10.00000000000000178, -12.50000000000000000, 10.00000000000000000 ) ) ;
#161 = ORIENTED_EDGE ( 'NONE', *, *, #221, .T. ) ;
#162 = APPLICATION_CONTEXT ( 'configuration controlled 3d designs of mechanical parts and assemblies' ) ;
#163 = ORIENTED_EDGE ( 'NONE', *, *, #240, .F. ) ;
#164 = ORIENTED_EDGE ( 'NONE', *, *, #127, .T. ) ;
#165 = ADVANCED_FACE ( 'NONE', ( #17 ), #149, .F. ) ;
#166 = DATE_AND_TIME ( #24, #244 ) ;
#167 = DIRECTION ( 'NONE',  ( 0.000000000000000000, 0.000000000000000000, 1.000000000000000000 ) ) ;
#168 = AXIS2_PLACEMENT_3D ( 'NONE', #36, #128, #257 ) ;
#169 = FACE_OUTER_BOUND ( 'NONE', #178, .T. ) ;
#170 = CARTESIAN_POINT ( 'NONE',  ( 10.00000000000000178, -12.50000000000000000, -10.00000000000000000 ) ) ;
#171 = AXIS2_PLACEMENT_3D ( 'NONE', #138, #70, #28 ) ;
#172 = SPHERICAL_SURFACE ( 'NONE', #275, 1000.000000000000000 ) ;
#173 = AXIS2_PLACEMENT_3D ( 'NONE', #12, #92, #54 ) ;
#174 = ADVANCED_FACE ( 'NONE', ( #212 ), #172, .F. ) ;
#175 = SECURITY_CLASSIFICATION_LEVEL ( 'unclassified' ) ;
#176 = PERSON_AND_ORGANIZATION ( #216, #65 ) ;
#177 = CARTESIAN_POINT ( 'NONE',  ( 10.00000000000000178, -12.50000000000000000, -0.9093708931823263342 ) ) ;
#178 = EDGE_LOOP ( 'NONE', ( #251, #141, #247, #184 ) ) ;
#179 = PLANE ( 'NONE',  #109 ) ;
#180 = PERSON_AND_ORGANIZATION ( #216, #65 ) ;
#181 = CC_DESIGN_PERSON_AND_ORGANIZATION_ASSIGNMENT ( #241, #43, ( #111 ) ) ;
#182 = ORIENTED_EDGE ( 'NONE', *, *, #64, .T. ) ;
#183 = DIRECTION ( 'NONE',  ( 0.000000000000000000, 0.000000000000000000, 1.000000000000000000 ) ) ;
#184 = ORIENTED_EDGE ( 'NONE', *, *, #158, .T. ) ;
#185 = ORIENTED_EDGE ( 'NONE', *, *, #50, .F. ) ;
#186 = VECTOR ( 'NONE', #39, 1000.000000000000000 ) ;
#187 = ORIENTED_EDGE ( 'NONE', *, *, #15, .T. ) ;
#188 = CALENDAR_DATE ( 2024, 24, 12 ) ;
#189 = DIRECTION ( 'NONE',  ( 1.000000000000000000, 1.734723475976807094E-16, 0.000000000000000000 ) ) ;
#190 = LINE ( 'NONE', #209, #186 ) ;
#191 = CIRCLE ( 'NONE', #226, 1000.000000000000000 ) ;
#192 = DIRECTION ( 'NONE',  ( -0.000000000000000000, -0.000000000000000000, -1.000000000000000000 ) ) ;
#193 = LINE ( 'NONE', #18, #120 ) ;
#194 = CALENDAR_DATE ( 2024, 24, 12 ) ;
#195 = DATE_AND_TIME ( #194, #206 ) ;
#196 = DIRECTION ( 'NONE',  ( -0.000000000000000000, -0.000000000000000000, -1.000000000000000000 ) ) ;
#197 = PERSON_AND_ORGANIZATION_ROLE ( 'creator' ) ;
#198 = APPROVAL ( #223, 'Î´Ö¸¶¨' ) ;
#199 = LINE ( 'NONE', #116, #62 ) ;
#200 =( LENGTH_UNIT ( ) NAMED_UNIT ( * ) SI_UNIT ( .MILLI., .METRE. ) );
#201 = VERTEX_POINT ( 'NONE', #86 ) ;
#202 = AXIS2_PLACEMENT_3D ( 'NONE', #140, #225, #32 ) ;
#203 = DIRECTION ( 'NONE',  ( -1.000000000000000000, 0.000000000000000000, 0.000000000000000000 ) ) ;
#204 = FACE_OUTER_BOUND ( 'NONE', #75, .T. ) ;
#205 = EDGE_LOOP ( 'NONE', ( #72, #67, #78, #185 ) ) ;
#206 = LOCAL_TIME ( 10, 21, 51.00000000000000000, #4 ) ;
#207 = AXIS2_PLACEMENT_3D ( 'NONE', #252, #203, #81 ) ;
#208 = CIRCLE ( 'NONE', #171, 999.9218719480036270 ) ;
#209 = CARTESIAN_POINT ( 'NONE',  ( 10.00000000000000178, 12.50000000000000000, 10.00000000000000000 ) ) ;
#210 = APPROVAL ( #253, 'Î´Ö¸¶¨' ) ;
#211 = DIRECTION ( 'NONE',  ( 0.000000000000000000, 0.000000000000000000, -1.000000000000000000 ) ) ;
#212 = FACE_OUTER_BOUND ( 'NONE', #99, .T. ) ;
#213 = DIRECTION ( 'NONE',  ( -1.000000000000000000, 0.000000000000000000, 0.000000000000000000 ) ) ;
#214 = CARTESIAN_POINT ( 'NONE',  ( -9.999999999999998224, 12.49999999999999645, -10.00000000000000000 ) ) ;
#215 = ORIENTED_EDGE ( 'NONE', *, *, #262, .F. ) ;
#216 = PERSON ( 'Î´Ö¸¶¨', 'Î´Ö¸¶¨', 'Î´Ö¸¶¨', ('Î´Ö¸¶¨'), ('Î´Ö¸¶¨'), ('Î´Ö¸¶¨') ) ;
#217 = COORDINATED_UNIVERSAL_TIME_OFFSET ( 8, 0, .AHEAD. ) ;
#218 = AXIS2_PLACEMENT_3D ( 'NONE', #37, #58, #129 ) ;
#219 = CLOSED_SHELL ( 'NONE', ( #174, #165, #231, #40, #124, #1, #71 ) ) ;
#220 = PERSON_AND_ORGANIZATION_ROLE ( 'design_supplier' ) ;
#221 = EDGE_CURVE ( 'NONE', #118, #159, #199, .T. ) ;
#222 = LINE ( 'NONE', #114, #230 ) ;
#223 = APPROVAL_STATUS ( 'not_yet_approved' ) ;
#224 = VERTEX_POINT ( 'NONE', #93 ) ;
#225 = DIRECTION ( 'NONE',  ( 1.000000000000000000, 0.000000000000000000, 0.000000000000000000 ) ) ;
#226 = AXIS2_PLACEMENT_3D ( 'NONE', #259, #131, #211 ) ;
#227 = ORIENTED_EDGE ( 'NONE', *, *, #243, .T. ) ;
#228 = CC_DESIGN_PERSON_AND_ORGANIZATION_ASSIGNMENT ( #2, #220, ( #48 ) ) ;
#229 = VERTEX_POINT ( 'NONE', #73 ) ;
#230 = VECTOR ( 'NONE', #5, 1000.000000000000000 ) ;
#231 = ADVANCED_FACE ( 'NONE', ( #6 ), #179, .F. ) ;
#232 = PERSON_AND_ORGANIZATION ( #216, #65 ) ;
#233 = MANIFOLD_SOLID_BREP ( 'ÇÐ³ý-Ðý×ª8', #219 ) ;
#234 = CARTESIAN_POINT ( 'NONE',  ( 10.00000000000000178, -12.50000000000000000, 10.00000000000000000 ) ) ;
#235 = DIRECTION ( 'NONE',  ( -1.000000000000000000, -1.734859017132303730E-16, 0.000000000000000000 ) ) ;
#236 = APPROVAL_ROLE ( '' ) ;
#237 = CARTESIAN_POINT ( 'NONE',  ( 10.00000000000000178, 12.50000000000000000, -10.00000000000000000 ) ) ;
#238 = DESIGN_CONTEXT ( 'detailed design', #162, 'design' ) ;
#239 = DIRECTION ( 'NONE',  ( 0.000000000000000000, 1.000000000000000000, -0.000000000000000000 ) ) ;
#240 = EDGE_CURVE ( 'NONE', #266, #142, #248, .T. ) ;
#241 = PERSON_AND_ORGANIZATION ( #216, #65 ) ;
#242 = APPROVAL_DATE_TIME ( #112, #10 ) ;
#243 = EDGE_CURVE ( 'NONE', #142, #224, #222, .T. ) ;
#244 = LOCAL_TIME ( 10, 21, 51.00000000000000000, #217 ) ;
#245 = AXIS2_PLACEMENT_3D ( 'NONE', #19, #213, #277 ) ;
#246 = LINE ( 'NONE', #265, #14 ) ;
#247 = ORIENTED_EDGE ( 'NONE', *, *, #143, .T. ) ;
#248 = LINE ( 'NONE', #52, #125 ) ;
#249 = VERTEX_POINT ( 'NONE', #157 ) ;
#250 = APPLICATION_PROTOCOL_DEFINITION ( 'international standard', 'config_control_design', 1994, #162 ) ;
#251 = ORIENTED_EDGE ( 'NONE', *, *, #221, .F. ) ;
#252 = CARTESIAN_POINT ( 'NONE',  ( 10.00000000000000178, 0.000000000000000000, 999.0000000000001137 ) ) ;
#253 = APPROVAL_STATUS ( 'not_yet_approved' ) ;
#254 = PRODUCT_DEFINITION ( 'Î´Öª', '', #48, #238 ) ;
#255 = CC_DESIGN_PERSON_AND_ORGANIZATION_ASSIGNMENT ( #176, #136, ( #254 ) ) ;
#256 = CIRCLE ( 'NONE', #202, 999.6874511566103365 ) ;
#257 = DIRECTION ( 'NONE',  ( -1.000000000000000000, 0.000000000000000000, 1.110223024625156540E-16 ) ) ;
#258 = DIRECTION ( 'NONE',  ( 0.000000000000000000, 0.000000000000000000, -1.000000000000000000 ) ) ;
#259 = CARTESIAN_POINT ( 'NONE',  ( 15.00000000000012434, 0.000000000000000000, 999.0000000000001137 ) ) ;
#260 = CIRCLE ( 'NONE', #31, 999.9218719480037407 ) ;
#261 = CARTESIAN_POINT ( 'NONE',  ( 10.00000000000000178, 0.000000000000000000, 999.0000000000001137 ) ) ;
#262 = EDGE_CURVE ( 'NONE', #159, #266, #246, .T. ) ;
#263 = DATE_AND_TIME ( #134, #271 ) ;
#264 = DATE_TIME_ROLE ( 'creation_date' ) ;
#265 = CARTESIAN_POINT ( 'NONE',  ( -9.999999999999998224, -12.50000000000000355, -10.00000000000000000 ) ) ;
#266 = VERTEX_POINT ( 'NONE', #91 ) ;
#267 = DIRECTION ( 'NONE',  ( -1.000000000000000000, -1.734723475976807094E-16, 0.000000000000000000 ) ) ;
#268 = ORIENTED_EDGE ( 'NONE', *, *, #103, .F. ) ;
#269 = PLANE ( 'NONE',  #173 ) ;
#270 = VERTEX_POINT ( 'NONE', #177 ) ;
#271 = LOCAL_TIME ( 10, 21, 51.00000000000000000, #115 ) ;
#272 = ORIENTED_EDGE ( 'NONE', *, *, #64, .F. ) ;
#273 = EDGE_CURVE ( 'NONE', #118, #249, #208, .T. ) ;
#274 = DIRECTION ( 'NONE',  ( -1.734723475976807094E-16, 1.000000000000000000, 0.000000000000000000 ) ) ;
#275 = AXIS2_PLACEMENT_3D ( 'NONE', #66, #239, #41 ) ;
#276 = LINE ( 'NONE', #234, #8 ) ;
#277 = DIRECTION ( 'NONE',  ( 0.000000000000000000, 0.000000000000000000, 1.000000000000000000 ) ) ;
ENDSEC;
END-ISO-10303-21;
