ISO-10303-21;
HEADER;
FILE_DESCRIPTION (( 'STEP AP214' ),
    '1' );
FILE_NAME ('280003.STEP',
    '2019-08-08T01:45:09',
    ( '' ),
    ( '' ),
    'SwSTEP 2.0',
    'SolidWorks 2016',
    '' );
FILE_SCHEMA (( 'AUTOMOTIVE_DESIGN' ));
ENDSEC;

DATA;
#1 = VERTEX_POINT ( 'NONE', #14 ) ;
#2 = AXIS2_PLACEMENT_3D ( 'NONE', #133, #48, #81 ) ;
#3 = SPHERICAL_SURFACE ( 'NONE', #177, 149.9999999999999700 ) ;
#4 = DIRECTION ( 'NONE',  ( 0.0000000000000000000, 0.0000000000000000000, 1.000000000000000000 ) ) ;
#5 =( NAMED_UNIT ( * ) PLANE_ANGLE_UNIT ( ) SI_UNIT ( $, .RADIAN. ) );
#6 = DIRECTION ( 'NONE',  ( 0.0000000000000000000, 0.0000000000000000000, -1.000000000000000000 ) ) ;
#7 = DIRECTION ( 'NONE',  ( -1.000000000000000000, -0.0000000000000000000, -0.0000000000000000000 ) ) ;
#8 = ORIENTED_EDGE ( 'NONE', *, *, #73, .F. ) ;
#9 = SURFACE_STYLE_FILL_AREA ( #128 ) ;
#10 = ORIENTED_EDGE ( 'NONE', *, *, #119, .T. ) ;
#11 = ORIENTED_EDGE ( 'NONE', *, *, #70, .F. ) ;
#12 = ORIENTED_EDGE ( 'NONE', *, *, #73, .T. ) ;
#13 = ADVANCED_FACE ( 'NONE', ( #60 ), #163, .T. ) ;
#14 = CARTESIAN_POINT ( 'NONE',  ( 142.3535678156410400, 33.42896463388353800, -6.249999999999998200 ) ) ;
#15 = SURFACE_STYLE_USAGE ( .BOTH. , #109 ) ;
#16 =( NAMED_UNIT ( * ) SI_UNIT ( $, .STERADIAN. ) SOLID_ANGLE_UNIT ( ) );
#17 = CARTESIAN_POINT ( 'NONE',  ( 145.4838327121183900, 33.42896463388353800, 6.249999999999998200 ) ) ;
#18 = AXIS2_PLACEMENT_3D ( 'NONE', #131, #97, #31 ) ;
#19 = PRODUCT_CONTEXT ( 'NONE', #156, 'mechanical' ) ;
#20 = VERTEX_POINT ( 'NONE', #157 ) ;
#21 = ORIENTED_EDGE ( 'NONE', *, *, #119, .F. ) ;
#22 = EDGE_CURVE ( 'NONE', #85, #42, #173, .T. ) ;
#23 = SHAPE_DEFINITION_REPRESENTATION ( #56, #106 ) ;
#24 = STYLED_ITEM ( 'NONE', ( #108 ), #122 ) ;
#25 = CLOSED_SHELL ( 'NONE', ( #13, #75, #92, #153, #151 ) ) ;
#26 =( NAMED_UNIT ( * ) PLANE_ANGLE_UNIT ( ) SI_UNIT ( $, .RADIAN. ) );
#27 = CARTESIAN_POINT ( 'NONE',  ( 142.3535678156410400, 33.42896463388353800, 0.0000000000000000000 ) ) ;
#28 = CARTESIAN_POINT ( 'NONE',  ( 145.4838327121183900, 27.17896463388385400, 0.0000000000000000000 ) ) ;
#29 = SURFACE_STYLE_USAGE ( .BOTH. , #170 ) ;
#30 = CARTESIAN_POINT ( 'NONE',  ( 295.3535678156408700, 33.42896463388353800, 0.0000000000000000000 ) ) ;
#31 = DIRECTION ( 'NONE',  ( 0.0000000000000000000, 0.0000000000000000000, 1.000000000000000000 ) ) ;
#32 = DIRECTION ( 'NONE',  ( 0.0000000000000000000, -1.000000000000000000, -1.224646799147353200E-016 ) ) ;
#33 = EDGE_CURVE ( 'NONE', #1, #20, #178, .T. ) ;
#34 = ORIENTED_EDGE ( 'NONE', *, *, #115, .T. ) ;
#35 = ORIENTED_EDGE ( 'NONE', *, *, #167, .T. ) ;
#36 = PRESENTATION_LAYER_ASSIGNMENT (  '', '', ( #24 ) ) ;
#37 =( GEOMETRIC_REPRESENTATION_CONTEXT ( 3 ) GLOBAL_UNCERTAINTY_ASSIGNED_CONTEXT ( ( #55 ) ) GLOBAL_UNIT_ASSIGNED_CONTEXT ( ( #146, #5, #16 ) ) REPRESENTATION_CONTEXT ( 'NONE', 'WORKASPACE' ) );
#38 = ORIENTED_EDGE ( 'NONE', *, *, #45, .T. ) ;
#39 = EDGE_CURVE ( 'NONE', #89, #118, #117, .T. ) ;
#40 = DIRECTION ( 'NONE',  ( 0.0000000000000000000, 0.0000000000000000000, 1.000000000000000000 ) ) ;
#41 = CARTESIAN_POINT ( 'NONE',  ( 142.3535678156410400, 33.42896463388353800, 0.0000000000000000000 ) ) ;
#42 = VERTEX_POINT ( 'NONE', #28 ) ;
#43 = CARTESIAN_POINT ( 'NONE',  ( 0.0000000000000000000, 0.0000000000000000000, 0.0000000000000000000 ) ) ;
#44 = DIRECTION ( 'NONE',  ( -1.000000000000000000, -0.0000000000000000000, -0.0000000000000000000 ) ) ;
#45 = EDGE_CURVE ( 'NONE', #174, #20, #123, .T. ) ;
#46 =( LENGTH_UNIT ( ) NAMED_UNIT ( * ) SI_UNIT ( .MILLI., .METRE. ) );
#47 = DIRECTION ( 'NONE',  ( 0.0000000000000000000, 0.0000000000000000000, 1.000000000000000000 ) ) ;
#48 = DIRECTION ( 'NONE',  ( -1.000000000000000000, -0.0000000000000000000, -0.0000000000000000000 ) ) ;
#49 = ORIENTED_EDGE ( 'NONE', *, *, #115, .F. ) ;
#50 = AXIS2_PLACEMENT_3D ( 'NONE', #27, #161, #6 ) ;
#51 = CIRCLE ( 'NONE', #182, 6.249999999999998200 ) ;
#52 = ORIENTED_EDGE ( 'NONE', *, *, #22, .F. ) ;
#53 = PRODUCT_DEFINITION_FORMATION_WITH_SPECIFIED_SOURCE ( 'ÈÎºÎ', '', #105, .NOT_KNOWN. ) ;
#54 = AXIS2_PLACEMENT_3D ( 'NONE', #41, #107, #4 ) ;
#55 = UNCERTAINTY_MEASURE_WITH_UNIT (LENGTH_MEASURE( 1.000000000000000100E-005 ), #146, 'distance_accuracy_value', 'NONE');
#56 = PRODUCT_DEFINITION_SHAPE ( 'NONE', 'NONE',  #111 ) ;
#57 = MECHANICAL_DESIGN_GEOMETRIC_PRESENTATION_REPRESENTATION (  '', ( #154 ), #37 ) ;
#58 = AXIS2_PLACEMENT_3D ( 'NONE', #43, #159, #129 ) ;
#59 = EDGE_CURVE ( 'NONE', #89, #85, #113, .T. ) ;
#60 = FACE_OUTER_BOUND ( 'NONE', #168, .T. ) ;
#61 = DIRECTION ( 'NONE',  ( 0.0000000000000000000, -1.224646799147353200E-016, 1.000000000000000000 ) ) ;
#62 = APPLICATION_CONTEXT ( 'automotive_design' ) ;
#63 = FILL_AREA_STYLE_COLOUR ( '', #121 ) ;
#64 = DIRECTION ( 'NONE',  ( 0.0000000000000000000, -1.000000000000000000, 0.0000000000000000000 ) ) ;
#65 =( NAMED_UNIT ( * ) PLANE_ANGLE_UNIT ( ) SI_UNIT ( $, .RADIAN. ) );
#66 = DIRECTION ( 'NONE',  ( 0.0000000000000000000, -1.000000000000000000, 0.0000000000000000000 ) ) ;
#67 = FILL_AREA_STYLE_COLOUR ( '', #74 ) ;
#68 = CYLINDRICAL_SURFACE ( 'NONE', #132, 6.249999999999998200 ) ;
#69 = CIRCLE ( 'NONE', #2, 6.249999999999998200 ) ;
#70 = EDGE_CURVE ( 'NONE', #42, #174, #93, .T. ) ;
#71 = AXIS2_PLACEMENT_3D ( 'NONE', #78, #126, #141 ) ;
#72 = EDGE_LOOP ( 'NONE', ( #87, #21, #11, #12 ) ) ;
#73 = EDGE_CURVE ( 'NONE', #42, #118, #175, .T. ) ;
#74 = COLOUR_RGB ( '',1.000000000000000000, 1.000000000000000000, 1.000000000000000000 ) ;
#75 = ADVANCED_FACE ( 'NONE', ( #186 ), #3, .F. ) ;
#76 = ORIENTED_EDGE ( 'NONE', *, *, #167, .F. ) ;
#77 = CARTESIAN_POINT ( 'NONE',  ( 139.3275131547538900, 33.42896463388353800, 0.0000000000000000000 ) ) ;
#78 = CARTESIAN_POINT ( 'NONE',  ( 139.3275131547538900, 33.42896463388353800, 0.0000000000000000000 ) ) ;
#79 = DIRECTION ( 'NONE',  ( -1.000000000000000000, -0.0000000000000000000, -0.0000000000000000000 ) ) ;
#80 = ORIENTED_EDGE ( 'NONE', *, *, #59, .F. ) ;
#81 = DIRECTION ( 'NONE',  ( 0.0000000000000000000, 0.0000000000000000000, 1.000000000000000000 ) ) ;
#82 = MECHANICAL_DESIGN_GEOMETRIC_PRESENTATION_REPRESENTATION (  '', ( #24 ), #91 ) ;
#83 = PLANE ( 'NONE',  #50 ) ;
#84 = DIRECTION ( 'NONE',  ( 0.0000000000000000000, 0.0000000000000000000, 1.000000000000000000 ) ) ;
#85 = VERTEX_POINT ( 'NONE', #145 ) ;
#86 = AXIS2_PLACEMENT_3D ( 'NONE', #152, #61, #32 ) ;
#87 = ORIENTED_EDGE ( 'NONE', *, *, #39, .F. ) ;
#88 = AXIS2_PLACEMENT_3D ( 'NONE', #184, #162, #64 ) ;
#89 = VERTEX_POINT ( 'NONE', #99 ) ;
#90 = EDGE_LOOP ( 'NONE', ( #76, #176, #165, #38, #135 ) ) ;
#91 =( GEOMETRIC_REPRESENTATION_CONTEXT ( 3 ) GLOBAL_UNCERTAINTY_ASSIGNED_CONTEXT ( ( #148 ) ) GLOBAL_UNIT_ASSIGNED_CONTEXT ( ( #127, #65, #139 ) ) REPRESENTATION_CONTEXT ( 'NONE', 'WORKASPACE' ) );
#92 = ADVANCED_FACE ( 'NONE', ( #120 ), #137, .F. ) ;
#93 = CIRCLE ( 'NONE', #18, 6.249999999999998200 ) ;
#94 = DIRECTION ( 'NONE',  ( -1.000000000000000000, -0.0000000000000000000, -0.0000000000000000000 ) ) ;
#95 = DIRECTION ( 'NONE',  ( -1.000000000000000000, -0.0000000000000000000, -0.0000000000000000000 ) ) ;
#96 = APPLICATION_PROTOCOL_DEFINITION ( 'draft international standard', 'automotive_design', 1998, #156 ) ;
#97 = DIRECTION ( 'NONE',  ( -1.000000000000000000, -0.0000000000000000000, -0.0000000000000000000 ) ) ;
#98 = APPLICATION_PROTOCOL_DEFINITION ( 'draft international standard', 'automotive_design', 1998, #62 ) ;
#99 = CARTESIAN_POINT ( 'NONE',  ( 145.4838327121183900, 39.67896463388322600, 7.654042494670577000E-016 ) ) ;
#100 = SURFACE_STYLE_FILL_AREA ( #101 ) ;
#101 = FILL_AREA_STYLE ('',( #67 ) ) ;
#102 = ORIENTED_EDGE ( 'NONE', *, *, #33, .T. ) ;
#103 = UNCERTAINTY_MEASURE_WITH_UNIT (LENGTH_MEASURE( 1.000000000000000100E-005 ), #46, 'distance_accuracy_value', 'NONE');
#104 = AXIS2_PLACEMENT_3D ( 'NONE', #144, #94, #124 ) ;
#105 = PRODUCT ( '280003', '280003', '', ( #19 ) ) ;
#106 = ADVANCED_BREP_SHAPE_REPRESENTATION ( '280003', ( #122, #58 ), #149 ) ;
#107 = DIRECTION ( 'NONE',  ( -1.000000000000000000, -0.0000000000000000000, -0.0000000000000000000 ) ) ;
#108 = PRESENTATION_STYLE_ASSIGNMENT (( #15 ) ) ;
#109 = SURFACE_SIDE_STYLE ('',( #100 ) ) ;
#110 = CARTESIAN_POINT ( 'NONE',  ( 139.3275131547538900, 33.42896463388353800, 6.249999999999998200 ) ) ;
#111 = PRODUCT_DEFINITION ( 'Î´Öª', '', #53, #150 ) ;
#112 = DIRECTION ( 'NONE',  ( 0.0000000000000000000, 0.0000000000000000000, -1.000000000000000000 ) ) ;
#113 = CIRCLE ( 'NONE', #158, 6.249999999999998200 ) ;
#114 = CARTESIAN_POINT ( 'NONE',  ( 145.3535678156409000, 33.42896463388353100, 0.0000000000000000000 ) ) ;
#115 = EDGE_CURVE ( 'NONE', #20, #1, #51, .T. ) ;
#116 = PRODUCT_RELATED_PRODUCT_CATEGORY ( 'part', '', ( #105 ) ) ;
#117 = CIRCLE ( 'NONE', #86, 149.9999999999999700 ) ;
#118 = VERTEX_POINT ( 'NONE', #114 ) ;
#119 = EDGE_CURVE ( 'NONE', #174, #89, #69, .T. ) ;
#120 = FACE_OUTER_BOUND ( 'NONE', #72, .T. ) ;
#121 = COLOUR_RGB ( '',1.000000000000000000, 1.000000000000000000, 1.000000000000000000 ) ;
#122 = MANIFOLD_SOLID_BREP ( 'Ðý×ª1', #25 ) ;
#123 = LINE ( 'NONE', #110, #180 ) ;
#124 = DIRECTION ( 'NONE',  ( 0.0000000000000000000, 0.0000000000000000000, 1.000000000000000000 ) ) ;
#125 = ORIENTED_EDGE ( 'NONE', *, *, #39, .T. ) ;
#126 = DIRECTION ( 'NONE',  ( -1.000000000000000000, -0.0000000000000000000, -0.0000000000000000000 ) ) ;
#127 =( LENGTH_UNIT ( ) NAMED_UNIT ( * ) SI_UNIT ( .MILLI., .METRE. ) );
#128 = FILL_AREA_STYLE ('',( #63 ) ) ;
#129 = DIRECTION ( 'NONE',  ( 1.000000000000000000, 0.0000000000000000000, 0.0000000000000000000 ) ) ;
#130 = EDGE_LOOP ( 'NONE', ( #80, #125, #8, #52 ) ) ;
#131 = CARTESIAN_POINT ( 'NONE',  ( 145.4838327121183900, 33.42896463388353800, 0.0000000000000000000 ) ) ;
#132 = AXIS2_PLACEMENT_3D ( 'NONE', #77, #79, #40 ) ;
#133 = CARTESIAN_POINT ( 'NONE',  ( 145.4838327121183900, 33.42896463388353800, 0.0000000000000000000 ) ) ;
#134 = FACE_OUTER_BOUND ( 'NONE', #90, .T. ) ;
#135 = ORIENTED_EDGE ( 'NONE', *, *, #33, .F. ) ;
#136 = ORIENTED_EDGE ( 'NONE', *, *, #59, .T. ) ;
#137 = SPHERICAL_SURFACE ( 'NONE', #88, 149.9999999999999700 ) ;
#138 = AXIS2_PLACEMENT_3D ( 'NONE', #147, #112, #171 ) ;
#139 =( NAMED_UNIT ( * ) SI_UNIT ( $, .STERADIAN. ) SOLID_ANGLE_UNIT ( ) );
#140 = LINE ( 'NONE', #142, #164 ) ;
#141 = DIRECTION ( 'NONE',  ( 0.0000000000000000000, 0.0000000000000000000, 1.000000000000000000 ) ) ;
#142 = CARTESIAN_POINT ( 'NONE',  ( 139.3275131547538900, 33.42896463388353800, -6.249999999999998200 ) ) ;
#143 =( NAMED_UNIT ( * ) SI_UNIT ( $, .STERADIAN. ) SOLID_ANGLE_UNIT ( ) );
#144 = CARTESIAN_POINT ( 'NONE',  ( 145.4838327121183900, 33.42896463388353800, 0.0000000000000000000 ) ) ;
#145 = CARTESIAN_POINT ( 'NONE',  ( 145.4838327121183900, 33.42896463388353800, -6.249999999999998200 ) ) ;
#146 =( LENGTH_UNIT ( ) NAMED_UNIT ( * ) SI_UNIT ( .MILLI., .METRE. ) );
#147 = CARTESIAN_POINT ( 'NONE',  ( 295.3535678156408700, 33.42896463388353800, 0.0000000000000000000 ) ) ;
#148 = UNCERTAINTY_MEASURE_WITH_UNIT (LENGTH_MEASURE( 1.000000000000000100E-005 ), #127, 'distance_accuracy_value', 'NONE');
#149 =( GEOMETRIC_REPRESENTATION_CONTEXT ( 3 ) GLOBAL_UNCERTAINTY_ASSIGNED_CONTEXT ( ( #103 ) ) GLOBAL_UNIT_ASSIGNED_CONTEXT ( ( #46, #26, #143 ) ) REPRESENTATION_CONTEXT ( 'NONE', 'WORKASPACE' ) );
#150 = PRODUCT_DEFINITION_CONTEXT ( 'detailed design', #62, 'design' ) ;
#151 = ADVANCED_FACE ( 'NONE', ( #183 ), #83, .F. ) ;
#152 = CARTESIAN_POINT ( 'NONE',  ( 295.3535678156408700, 33.42896463388353800, 0.0000000000000000000 ) ) ;
#153 = ADVANCED_FACE ( 'NONE', ( #134 ), #68, .T. ) ;
#154 = STYLED_ITEM ( 'NONE', ( #166 ), #106 ) ;
#155 = EDGE_LOOP ( 'NONE', ( #34, #102 ) ) ;
#156 = APPLICATION_CONTEXT ( 'automotive_design' ) ;
#157 = CARTESIAN_POINT ( 'NONE',  ( 142.3535678156410400, 33.42896463388353800, 6.249999999999998200 ) ) ;
#158 = AXIS2_PLACEMENT_3D ( 'NONE', #160, #7, #181 ) ;
#159 = DIRECTION ( 'NONE',  ( 0.0000000000000000000, 0.0000000000000000000, 1.000000000000000000 ) ) ;
#160 = CARTESIAN_POINT ( 'NONE',  ( 145.4838327121183900, 33.42896463388353800, 0.0000000000000000000 ) ) ;
#161 = DIRECTION ( 'NONE',  ( 1.000000000000000000, 0.0000000000000000000, 0.0000000000000000000 ) ) ;
#162 = DIRECTION ( 'NONE',  ( 0.0000000000000000000, 0.0000000000000000000, 1.000000000000000000 ) ) ;
#163 = CYLINDRICAL_SURFACE ( 'NONE', #71, 6.249999999999998200 ) ;
#164 = VECTOR ( 'NONE', #95, 1000.000000000000000 ) ;
#165 = ORIENTED_EDGE ( 'NONE', *, *, #70, .T. ) ;
#166 = PRESENTATION_STYLE_ASSIGNMENT (( #29 ) ) ;
#167 = EDGE_CURVE ( 'NONE', #85, #1, #140, .T. ) ;
#168 = EDGE_LOOP ( 'NONE', ( #136, #35, #49, #169, #10 ) ) ;
#169 = ORIENTED_EDGE ( 'NONE', *, *, #45, .F. ) ;
#170 = SURFACE_SIDE_STYLE ('',( #9 ) ) ;
#171 = DIRECTION ( 'NONE',  ( -1.000000000000000000, 0.0000000000000000000, 0.0000000000000000000 ) ) ;
#172 = CARTESIAN_POINT ( 'NONE',  ( 142.3535678156410400, 33.42896463388353800, 0.0000000000000000000 ) ) ;
#173 = CIRCLE ( 'NONE', #104, 6.249999999999998200 ) ;
#174 = VERTEX_POINT ( 'NONE', #17 ) ;
#175 = CIRCLE ( 'NONE', #138, 149.9999999999999700 ) ;
#176 = ORIENTED_EDGE ( 'NONE', *, *, #22, .T. ) ;
#177 = AXIS2_PLACEMENT_3D ( 'NONE', #30, #47, #66 ) ;
#178 = CIRCLE ( 'NONE', #54, 6.249999999999998200 ) ;
#179 = PRESENTATION_LAYER_ASSIGNMENT (  '', '', ( #154 ) ) ;
#180 = VECTOR ( 'NONE', #44, 1000.000000000000000 ) ;
#181 = DIRECTION ( 'NONE',  ( 0.0000000000000000000, 0.0000000000000000000, 1.000000000000000000 ) ) ;
#182 = AXIS2_PLACEMENT_3D ( 'NONE', #172, #185, #84 ) ;
#183 = FACE_OUTER_BOUND ( 'NONE', #155, .T. ) ;
#184 = CARTESIAN_POINT ( 'NONE',  ( 295.3535678156408700, 33.42896463388353800, 0.0000000000000000000 ) ) ;
#185 = DIRECTION ( 'NONE',  ( -1.000000000000000000, -0.0000000000000000000, -0.0000000000000000000 ) ) ;
#186 = FACE_OUTER_BOUND ( 'NONE', #130, .T. ) ;
ENDSEC;
END-ISO-10303-21;
