ISO-10303-21;
HEADER;
FILE_DESCRIPTION (( 'STEP AP214' ),
    '1' );
FILE_NAME ('302510.STEP',
    '2019-08-13T03:17:14',
    ( '' ),
    ( '' ),
    'SwSTEP 2.0',
    'SolidWorks 2016',
    '' );
FILE_SCHEMA (( 'AUTOMOTIVE_DESIGN' ));
ENDSEC;

DATA;
#1 =( NAMED_UNIT ( * ) SI_UNIT ( $, .STERADIAN. ) SOLID_ANGLE_UNIT ( ) );
#2 = FACE_OUTER_BOUND ( 'NONE', #105, .T. ) ;
#3 = ADVANCED_FACE ( 'NONE', ( #2 ), #40, .T. ) ;
#4 = CARTESIAN_POINT ( 'NONE',  ( 46.80749197114185000, 30.78162091726329700, 2.299999999999999800 ) ) ;
#5 = ORIENTED_EDGE ( 'NONE', *, *, #16, .T. ) ;
#6 = VECTOR ( 'NONE', #114, 1000.000000000000000 ) ;
#7 = CARTESIAN_POINT ( 'NONE',  ( 61.80749197114184300, 30.78162091726329700, 2.299999999999999800 ) ) ;
#8 = DIRECTION ( 'NONE',  ( 1.000000000000000000, 0.0000000000000000000, -0.0000000000000000000 ) ) ;
#9 = ADVANCED_BREP_SHAPE_REPRESENTATION ( '302510', ( #134, #96 ), #61 ) ;
#10 =( NAMED_UNIT ( * ) PLANE_ANGLE_UNIT ( ) SI_UNIT ( $, .RADIAN. ) );
#11 = PRODUCT_CONTEXT ( 'NONE', #110, 'mechanical' ) ;
#12 =( LENGTH_UNIT ( ) NAMED_UNIT ( * ) SI_UNIT ( .MILLI., .METRE. ) );
#13 = VERTEX_POINT ( 'NONE', #136 ) ;
#14 = CARTESIAN_POINT ( 'NONE',  ( 46.80749197114185000, 30.78162091726329700, 2.299999999999999800 ) ) ;
#15 = VERTEX_POINT ( 'NONE', #4 ) ;
#16 = EDGE_CURVE ( 'NONE', #15, #47, #125, .T. ) ;
#17 = CIRCLE ( 'NONE', #62, 7.500000000000000000 ) ;
#18 = DIRECTION ( 'NONE',  ( -0.0000000000000000000, -0.0000000000000000000, -1.000000000000000000 ) ) ;
#19 = DIRECTION ( 'NONE',  ( 1.000000000000000000, 0.0000000000000000000, 0.0000000000000000000 ) ) ;
#20 = MECHANICAL_DESIGN_GEOMETRIC_PRESENTATION_REPRESENTATION (  '', ( #39 ), #31 ) ;
#21 = DIRECTION ( 'NONE',  ( 0.0000000000000000000, 0.0000000000000000000, 1.000000000000000000 ) ) ;
#22 = CARTESIAN_POINT ( 'NONE',  ( 54.30749197114185000, 30.78162091726329700, 0.0000000000000000000 ) ) ;
#23 = CARTESIAN_POINT ( 'NONE',  ( 54.30749197114185000, 30.78162091726329700, 0.0000000000000000000 ) ) ;
#24 = ORIENTED_EDGE ( 'NONE', *, *, #28, .F. ) ;
#25 = AXIS2_PLACEMENT_3D ( 'NONE', #116, #55, #19 ) ;
#26 = CARTESIAN_POINT ( 'NONE',  ( 0.0000000000000000000, 0.0000000000000000000, 0.0000000000000000000 ) ) ;
#27 = PRODUCT_DEFINITION_CONTEXT ( 'detailed design', #87, 'design' ) ;
#28 = EDGE_CURVE ( 'NONE', #119, #13, #38, .T. ) ;
#29 = ORIENTED_EDGE ( 'NONE', *, *, #28, .T. ) ;
#30 = CYLINDRICAL_SURFACE ( 'NONE', #54, 7.500000000000000000 ) ;
#31 =( GEOMETRIC_REPRESENTATION_CONTEXT ( 3 ) GLOBAL_UNCERTAINTY_ASSIGNED_CONTEXT ( ( #63 ) ) GLOBAL_UNIT_ASSIGNED_CONTEXT ( ( #56, #10, #1 ) ) REPRESENTATION_CONTEXT ( 'NONE', 'WORKASPACE' ) );
#32 = PLANE ( 'NONE',  #133 ) ;
#33 = CARTESIAN_POINT ( 'NONE',  ( 54.30749197114185000, 30.78162091726329700, 2.299999999999999800 ) ) ;
#34 =( LENGTH_UNIT ( ) NAMED_UNIT ( * ) SI_UNIT ( .MILLI., .METRE. ) );
#35 = CARTESIAN_POINT ( 'NONE',  ( 54.30749197114185000, 30.78162091726329700, 0.0000000000000000000 ) ) ;
#36 = AXIS2_PLACEMENT_3D ( 'NONE', #92, #57, #97 ) ;
#37 = EDGE_CURVE ( 'NONE', #15, #119, #44, .T. ) ;
#38 = LINE ( 'NONE', #7, #101 ) ;
#39 = STYLED_ITEM ( 'NONE', ( #95 ), #134 ) ;
#40 = CYLINDRICAL_SURFACE ( 'NONE', #121, 7.500000000000000000 ) ;
#41 = DIRECTION ( 'NONE',  ( -0.0000000000000000000, -0.0000000000000000000, -1.000000000000000000 ) ) ;
#42 = COLOUR_RGB ( '',1.000000000000000000, 1.000000000000000000, 1.000000000000000000 ) ;
#43 = DIRECTION ( 'NONE',  ( 1.000000000000000000, 0.0000000000000000000, -0.0000000000000000000 ) ) ;
#44 = CIRCLE ( 'NONE', #36, 7.500000000000000000 ) ;
#45 = PRESENTATION_STYLE_ASSIGNMENT (( #126 ) ) ;
#46 = SURFACE_STYLE_USAGE ( .BOTH. , #77 ) ;
#47 = VERTEX_POINT ( 'NONE', #73 ) ;
#48 = APPLICATION_PROTOCOL_DEFINITION ( 'draft international standard', 'automotive_design', 1998, #110 ) ;
#49 = PRESENTATION_LAYER_ASSIGNMENT (  '', '', ( #39 ) ) ;
#50 = APPLICATION_PROTOCOL_DEFINITION ( 'draft international standard', 'automotive_design', 1998, #87 ) ;
#51 = ADVANCED_FACE ( 'NONE', ( #117 ), #32, .T. ) ;
#52 = ADVANCED_FACE ( 'NONE', ( #79 ), #123, .F. ) ;
#53 = ORIENTED_EDGE ( 'NONE', *, *, #16, .F. ) ;
#54 = AXIS2_PLACEMENT_3D ( 'NONE', #33, #18, #122 ) ;
#55 = DIRECTION ( 'NONE',  ( 0.0000000000000000000, 0.0000000000000000000, 1.000000000000000000 ) ) ;
#56 =( LENGTH_UNIT ( ) NAMED_UNIT ( * ) SI_UNIT ( .MILLI., .METRE. ) );
#57 = DIRECTION ( 'NONE',  ( 0.0000000000000000000, 0.0000000000000000000, 1.000000000000000000 ) ) ;
#58 = DIRECTION ( 'NONE',  ( 1.000000000000000000, 0.0000000000000000000, 0.0000000000000000000 ) ) ;
#59 = UNCERTAINTY_MEASURE_WITH_UNIT (LENGTH_MEASURE( 1.000000000000000100E-005 ), #34, 'distance_accuracy_value', 'NONE');
#60 = COLOUR_RGB ( '',1.000000000000000000, 1.000000000000000000, 1.000000000000000000 ) ;
#61 =( GEOMETRIC_REPRESENTATION_CONTEXT ( 3 ) GLOBAL_UNCERTAINTY_ASSIGNED_CONTEXT ( ( #59 ) ) GLOBAL_UNIT_ASSIGNED_CONTEXT ( ( #34, #128, #107 ) ) REPRESENTATION_CONTEXT ( 'NONE', 'WORKASPACE' ) );
#62 = AXIS2_PLACEMENT_3D ( 'NONE', #22, #118, #58 ) ;
#63 = UNCERTAINTY_MEASURE_WITH_UNIT (LENGTH_MEASURE( 1.000000000000000100E-005 ), #56, 'distance_accuracy_value', 'NONE');
#64 = FILL_AREA_STYLE_COLOUR ( '', #60 ) ;
#65 = EDGE_LOOP ( 'NONE', ( #84, #115 ) ) ;
#66 = SURFACE_STYLE_FILL_AREA ( #106 ) ;
#67 = DIRECTION ( 'NONE',  ( 1.000000000000000000, 0.0000000000000000000, 0.0000000000000000000 ) ) ;
#68 =( NAMED_UNIT ( * ) SI_UNIT ( $, .STERADIAN. ) SOLID_ANGLE_UNIT ( ) );
#69 = ORIENTED_EDGE ( 'NONE', *, *, #37, .F. ) ;
#70 = FACE_OUTER_BOUND ( 'NONE', #78, .T. ) ;
#71 = EDGE_LOOP ( 'NONE', ( #103, #91 ) ) ;
#72 = STYLED_ITEM ( 'NONE', ( #45 ), #9 ) ;
#73 = CARTESIAN_POINT ( 'NONE',  ( 46.80749197114185000, 30.78162091726329700, 0.0000000000000000000 ) ) ;
#74 = SHAPE_DEFINITION_REPRESENTATION ( #104, #9 ) ;
#75 = DIRECTION ( 'NONE',  ( 1.000000000000000000, 0.0000000000000000000, 0.0000000000000000000 ) ) ;
#76 = UNCERTAINTY_MEASURE_WITH_UNIT (LENGTH_MEASURE( 1.000000000000000100E-005 ), #12, 'distance_accuracy_value', 'NONE');
#77 = SURFACE_SIDE_STYLE ('',( #66 ) ) ;
#78 = EDGE_LOOP ( 'NONE', ( #99, #29, #89, #53 ) ) ;
#79 = FACE_OUTER_BOUND ( 'NONE', #65, .T. ) ;
#80 = PRESENTATION_LAYER_ASSIGNMENT (  '', '', ( #72 ) ) ;
#81 = EDGE_CURVE ( 'NONE', #13, #47, #120, .T. ) ;
#82 = CARTESIAN_POINT ( 'NONE',  ( 54.30749197114185000, 30.78162091726329700, 2.299999999999999800 ) ) ;
#83 = FILL_AREA_STYLE_COLOUR ( '', #42 ) ;
#84 = ORIENTED_EDGE ( 'NONE', *, *, #129, .F. ) ;
#85 = EDGE_CURVE ( 'NONE', #119, #15, #138, .T. ) ;
#86 = DIRECTION ( 'NONE',  ( 0.0000000000000000000, 0.0000000000000000000, 1.000000000000000000 ) ) ;
#87 = APPLICATION_CONTEXT ( 'automotive_design' ) ;
#88 = SURFACE_SIDE_STYLE ('',( #113 ) ) ;
#89 = ORIENTED_EDGE ( 'NONE', *, *, #81, .T. ) ;
#90 = ADVANCED_FACE ( 'NONE', ( #70 ), #30, .T. ) ;
#91 = ORIENTED_EDGE ( 'NONE', *, *, #85, .T. ) ;
#92 = CARTESIAN_POINT ( 'NONE',  ( 54.30749197114185000, 30.78162091726329700, 2.299999999999999800 ) ) ;
#93 = DIRECTION ( 'NONE',  ( -0.0000000000000000000, -0.0000000000000000000, -1.000000000000000000 ) ) ;
#94 = CLOSED_SHELL ( 'NONE', ( #90, #3, #51, #52 ) ) ;
#95 = PRESENTATION_STYLE_ASSIGNMENT (( #46 ) ) ;
#96 = AXIS2_PLACEMENT_3D ( 'NONE', #26, #100, #67 ) ;
#97 = DIRECTION ( 'NONE',  ( 1.000000000000000000, 0.0000000000000000000, 0.0000000000000000000 ) ) ;
#98 =( GEOMETRIC_REPRESENTATION_CONTEXT ( 3 ) GLOBAL_UNCERTAINTY_ASSIGNED_CONTEXT ( ( #76 ) ) GLOBAL_UNIT_ASSIGNED_CONTEXT ( ( #12, #140, #68 ) ) REPRESENTATION_CONTEXT ( 'NONE', 'WORKASPACE' ) );
#99 = ORIENTED_EDGE ( 'NONE', *, *, #85, .F. ) ;
#100 = DIRECTION ( 'NONE',  ( 0.0000000000000000000, 0.0000000000000000000, 1.000000000000000000 ) ) ;
#101 = VECTOR ( 'NONE', #93, 1000.000000000000000 ) ;
#102 = PRODUCT_DEFINITION_FORMATION_WITH_SPECIFIED_SOURCE ( 'ÈÎºÎ', '', #111, .NOT_KNOWN. ) ;
#103 = ORIENTED_EDGE ( 'NONE', *, *, #37, .T. ) ;
#104 = PRODUCT_DEFINITION_SHAPE ( 'NONE', 'NONE',  #135 ) ;
#105 = EDGE_LOOP ( 'NONE', ( #24, #69, #5, #127 ) ) ;
#106 = FILL_AREA_STYLE ('',( #83 ) ) ;
#107 =( NAMED_UNIT ( * ) SI_UNIT ( $, .STERADIAN. ) SOLID_ANGLE_UNIT ( ) );
#108 = FILL_AREA_STYLE ('',( #64 ) ) ;
#109 = PRODUCT_RELATED_PRODUCT_CATEGORY ( 'part', '', ( #111 ) ) ;
#110 = APPLICATION_CONTEXT ( 'automotive_design' ) ;
#111 = PRODUCT ( '302510', '302510', '', ( #11 ) ) ;
#112 = AXIS2_PLACEMENT_3D ( 'NONE', #23, #21, #43 ) ;
#113 = SURFACE_STYLE_FILL_AREA ( #108 ) ;
#114 = DIRECTION ( 'NONE',  ( -0.0000000000000000000, -0.0000000000000000000, -1.000000000000000000 ) ) ;
#115 = ORIENTED_EDGE ( 'NONE', *, *, #81, .F. ) ;
#116 = CARTESIAN_POINT ( 'NONE',  ( 54.30749197114185000, 30.78162091726329700, 2.299999999999999800 ) ) ;
#117 = FACE_OUTER_BOUND ( 'NONE', #71, .T. ) ;
#118 = DIRECTION ( 'NONE',  ( 0.0000000000000000000, 0.0000000000000000000, 1.000000000000000000 ) ) ;
#119 = VERTEX_POINT ( 'NONE', #137 ) ;
#120 = CIRCLE ( 'NONE', #139, 7.500000000000000000 ) ;
#121 = AXIS2_PLACEMENT_3D ( 'NONE', #132, #41, #131 ) ;
#122 = DIRECTION ( 'NONE',  ( -1.000000000000000000, 0.0000000000000000000, 0.0000000000000000000 ) ) ;
#123 = PLANE ( 'NONE',  #112 ) ;
#124 = DIRECTION ( 'NONE',  ( 0.0000000000000000000, 0.0000000000000000000, 1.000000000000000000 ) ) ;
#125 = LINE ( 'NONE', #14, #6 ) ;
#126 = SURFACE_STYLE_USAGE ( .BOTH. , #88 ) ;
#127 = ORIENTED_EDGE ( 'NONE', *, *, #129, .T. ) ;
#128 =( NAMED_UNIT ( * ) PLANE_ANGLE_UNIT ( ) SI_UNIT ( $, .RADIAN. ) );
#129 = EDGE_CURVE ( 'NONE', #47, #13, #17, .T. ) ;
#130 = MECHANICAL_DESIGN_GEOMETRIC_PRESENTATION_REPRESENTATION (  '', ( #72 ), #98 ) ;
#131 = DIRECTION ( 'NONE',  ( -1.000000000000000000, 0.0000000000000000000, 0.0000000000000000000 ) ) ;
#132 = CARTESIAN_POINT ( 'NONE',  ( 54.30749197114185000, 30.78162091726329700, 2.299999999999999800 ) ) ;
#133 = AXIS2_PLACEMENT_3D ( 'NONE', #82, #86, #8 ) ;
#134 = MANIFOLD_SOLID_BREP ( 'Í¹Ì¨-À­Éì1', #94 ) ;
#135 = PRODUCT_DEFINITION ( 'Î´Öª', '', #102, #27 ) ;
#136 = CARTESIAN_POINT ( 'NONE',  ( 61.80749197114184300, 30.78162091726329700, 0.0000000000000000000 ) ) ;
#137 = CARTESIAN_POINT ( 'NONE',  ( 61.80749197114184300, 30.78162091726329700, 2.299999999999999800 ) ) ;
#138 = CIRCLE ( 'NONE', #25, 7.500000000000000000 ) ;
#139 = AXIS2_PLACEMENT_3D ( 'NONE', #35, #124, #75 ) ;
#140 =( NAMED_UNIT ( * ) PLANE_ANGLE_UNIT ( ) SI_UNIT ( $, .RADIAN. ) );
ENDSEC;
END-ISO-10303-21;
