ISO-10303-21;
HEADER;
FILE_DESCRIPTION (( 'STEP AP203' ),
    '1' );
FILE_NAME ('365503.STEP',
    '2019-07-24T02:11:35',
    ( '' ),
    ( '' ),
    'SwSTEP 2.0',
    'SolidWorks 2016',
    '' );
FILE_SCHEMA (( 'CONFIG_CONTROL_DESIGN' ));
ENDSEC;

DATA;
#1 = VECTOR ( 'NONE', #144, 1000.000000000000000 ) ;
#2 = DIRECTION ( 'NONE',  ( 0.0000000000000000000, 1.000000000000000000, 0.0000000000000000000 ) ) ;
#3 = LOCAL_TIME ( 10, 11, 35.00000000000000000, #81 ) ;
#4 = PLANE ( 'NONE',  #47 ) ;
#5 = CC_DESIGN_APPROVAL ( #155, ( #69 ) ) ;
#6 = FACE_OUTER_BOUND ( 'NONE', #345, .T. ) ;
#7 = VERTEX_POINT ( 'NONE', #114 ) ;
#8 = APPROVAL_PERSON_ORGANIZATION ( #281, #242, #282 ) ;
#9 = DIRECTION ( 'NONE',  ( 0.9238795325112895100, -0.3826834323650831800, 0.0000000000000000000 ) ) ;
#10 = CARTESIAN_POINT ( 'NONE',  ( 16.62476252515132200, 16.24712349419276000, 20.00000000000000000 ) ) ;
#11 = DIRECTION ( 'NONE',  ( 1.000000000000000000, 0.0000000000000000000, 0.0000000000000000000 ) ) ;
#12 = PLANE ( 'NONE',  #216 ) ;
#13 = DESIGN_CONTEXT ( 'detailed design', #82, 'design' ) ;
#14 = APPROVAL_STATUS ( 'not_yet_approved' ) ;
#15 = ORIENTED_EDGE ( 'NONE', *, *, #20, .F. ) ;
#16 = DATE_AND_TIME ( #203, #261 ) ;
#17 = CC_DESIGN_PERSON_AND_ORGANIZATION_ASSIGNMENT ( #167, #152, ( #274 ) ) ;
#18 = DATE_TIME_ROLE ( 'classification_date' ) ;
#19 = CARTESIAN_POINT ( 'NONE',  ( -3.375237474848677500, 16.24712349419276000, 20.00000000000000000 ) ) ;
#20 = EDGE_CURVE ( 'NONE', #133, #232, #24, .T. ) ;
#21 = CARTESIAN_POINT ( 'NONE',  ( -11.66033378555272800, -3.754868384676660800, 20.00000000000000000 ) ) ;
#22 = PERSON_AND_ORGANIZATION ( #142, #68 ) ;
#23 = EDGE_CURVE ( 'NONE', #107, #183, #170, .T. ) ;
#24 = LINE ( 'NONE', #326, #162 ) ;
#25 = APPROVAL_DATE_TIME ( #331, #242 ) ;
#26 = VECTOR ( 'NONE', #305, 1000.000000000000100 ) ;
#27 = APPROVAL_DATE_TIME ( #16, #248 ) ;
#28 = EDGE_CURVE ( 'NONE', #71, #133, #235, .T. ) ;
#29 = VECTOR ( 'NONE', #301, 1000.000000000000000 ) ;
#30 = DATE_AND_TIME ( #215, #285 ) ;
#31 = CC_DESIGN_APPROVAL ( #93, ( #237 ) ) ;
#32 = VECTOR ( 'NONE', #172, 1000.000000000000000 ) ;
#33 = DIRECTION ( 'NONE',  ( 0.7071067811865494600, 0.7071067811865456900, -0.0000000000000000000 ) ) ;
#34 = PRODUCT ( '365503', '365503', '', ( #37 ) ) ;
#35 = CARTESIAN_POINT ( 'NONE',  ( 0.0000000000000000000, 0.0000000000000000000, 0.0000000000000000000 ) ) ;
#36 = CARTESIAN_POINT ( 'NONE',  ( -3.377229353718057300, -12.03797281651137900, 20.00000000000000000 ) ) ;
#37 = MECHANICAL_CONTEXT ( 'NONE', #118, 'mechanical' ) ;
#38 = CARTESIAN_POINT ( 'NONE',  ( -3.375237474848677500, 16.24712349419276000, 0.0000000000000000000 ) ) ;
#39 = FACE_OUTER_BOUND ( 'NONE', #173, .T. ) ;
#40 = ORIENTED_EDGE ( 'NONE', *, *, #309, .F. ) ;
#41 = APPROVAL_PERSON_ORGANIZATION ( #231, #252, #180 ) ;
#42 = CARTESIAN_POINT ( 'NONE',  ( 16.62476252515132200, 16.24712349419276000, 20.00000000000000000 ) ) ;
#43 = EDGE_CURVE ( 'NONE', #7, #107, #66, .T. ) ;
#44 = PERSON_AND_ORGANIZATION_ROLE ( 'creator' ) ;
#45 = MECHANICAL_CONTEXT ( 'NONE', #58, 'mechanical' ) ;
#46 = DIRECTION ( 'NONE',  ( -0.0000000000000000000, -0.0000000000000000000, -1.000000000000000000 ) ) ;
#47 = AXIS2_PLACEMENT_3D ( 'NONE', #225, #33, #328 ) ;
#48 = LINE ( 'NONE', #38, #314 ) ;
#49 = LOCAL_TIME ( 10, 11, 35.00000000000000000, #178 ) ;
#50 = VECTOR ( 'NONE', #143, 1000.000000000000000 ) ;
#51 = EDGE_CURVE ( 'NONE', #156, #183, #292, .T. ) ;
#52 = EDGE_LOOP ( 'NONE', ( #265, #341, #88, #113 ) ) ;
#53 = ORIENTED_EDGE ( 'NONE', *, *, #43, .F. ) ;
#54 = PERSON_AND_ORGANIZATION ( #142, #68 ) ;
#55 = APPROVAL ( #86, 'Î´Ö¸¶¨' ) ;
#56 = CARTESIAN_POINT ( 'NONE',  ( 16.62476252515132200, 16.24712349419276000, 20.00000000000000000 ) ) ;
#57 = VECTOR ( 'NONE', #322, 1000.000000000000100 ) ;
#58 = APPLICATION_CONTEXT ( 'configuration controlled 3d designs of mechanical parts and assemblies' ) ;
#59 = COORDINATED_UNIVERSAL_TIME_OFFSET ( 8, 0, .AHEAD. ) ;
#60 = DIRECTION ( 'NONE',  ( -0.9238795325112878500, -0.3826834323650871700, 0.0000000000000000000 ) ) ;
#61 = PRODUCT_DEFINITION ( 'Î´Öª', '', #230, #289 ) ;
#62 = COORDINATED_UNIVERSAL_TIME_OFFSET ( 8, 0, .AHEAD. ) ;
#63 = PERSON_AND_ORGANIZATION_ROLE ( 'creator' ) ;
#64 = ADVANCED_FACE ( 'NONE', ( #6 ), #95, .F. ) ;
#65 = EDGE_CURVE ( 'NONE', #342, #156, #166, .T. ) ;
#66 = LINE ( 'NONE', #76, #298 ) ;
#67 = DATE_AND_TIME ( #108, #294 ) ;
#68 = ORGANIZATION ( 'Î´Ö¸¶¨', 'Î´Ö¸¶¨', '' ) ;
#69 = PRODUCT_DEFINITION_FORMATION_WITH_SPECIFIED_SOURCE ( 'ÈÎºÎ', '', #34, .NOT_KNOWN. ) ;
#70 = CC_DESIGN_PERSON_AND_ORGANIZATION_ASSIGNMENT ( #348, #63, ( #230 ) ) ;
#71 = VERTEX_POINT ( 'NONE', #335 ) ;
#72 = ORIENTED_EDGE ( 'NONE', *, *, #284, .T. ) ;
#73 = CALENDAR_DATE ( 2019, 24, 7 ) ;
#74 = ORIENTED_EDGE ( 'NONE', *, *, #43, .T. ) ;
#75 = ORIENTED_EDGE ( 'NONE', *, *, #23, .F. ) ;
#76 = CARTESIAN_POINT ( 'NONE',  ( 16.62476252515132200, -3.752876505807242000, 0.0000000000000000000 ) ) ;
#77 = DIRECTION ( 'NONE',  ( -0.0000000000000000000, -0.0000000000000000000, -1.000000000000000000 ) ) ;
#78 = PERSON_AND_ORGANIZATION_ROLE ( 'creator' ) ;
#79 = CARTESIAN_POINT ( 'NONE',  ( 16.62476252515132200, 16.24712349419276000, 0.0000000000000000000 ) ) ;
#80 = MANIFOLD_SOLID_BREP ( 'Í¹Ì¨-À­Éì1', #260 ) ;
#81 = COORDINATED_UNIVERSAL_TIME_OFFSET ( 8, 0, .AHEAD. ) ;
#82 = APPLICATION_CONTEXT ( 'configuration controlled 3d designs of mechanical parts and assemblies' ) ;
#83 = VECTOR ( 'NONE', #77, 1000.000000000000000 ) ;
#84 = APPROVAL_PERSON_ORGANIZATION ( #346, #248, #339 ) ;
#85 = DIRECTION ( 'NONE',  ( 0.0000000000000000000, 0.0000000000000000000, 1.000000000000000000 ) ) ;
#86 = APPROVAL_STATUS ( 'not_yet_approved' ) ;
#87 = AXIS2_PLACEMENT_3D ( 'NONE', #195, #201, #139 ) ;
#88 = ORIENTED_EDGE ( 'NONE', *, *, #65, .F. ) ;
#89 = APPLICATION_PROTOCOL_DEFINITION ( 'international standard', 'config_control_design', 1994, #58 ) ;
#90 = PLANE ( 'NONE',  #158 ) ;
#91 = ORIENTED_EDGE ( 'NONE', *, *, #207, .T. ) ;
#92 = DATE_AND_TIME ( #254, #157 ) ;
#93 = APPROVAL ( #283, 'Î´Ö¸¶¨' ) ;
#94 = APPLICATION_PROTOCOL_DEFINITION ( 'international standard', 'config_control_design', 1994, #247 ) ;
#95 = PLANE ( 'NONE',  #161 ) ;
#96 = PERSON_AND_ORGANIZATION_ROLE ( 'classification_officer' ) ;
#97 = ADVANCED_FACE ( 'NONE', ( #259 ), #90, .T. ) ;
#98 = VECTOR ( 'NONE', #245, 1000.000000000000200 ) ;
#99 = PERSON_AND_ORGANIZATION ( #142, #68 ) ;
#100 = CC_DESIGN_APPROVAL ( #55, ( #332 ) ) ;
#101 = PERSON_AND_ORGANIZATION ( #142, #68 ) ;
#102 = ORIENTED_EDGE ( 'NONE', *, *, #138, .T. ) ;
#103 = ORIENTED_EDGE ( 'NONE', *, *, #224, .F. ) ;
#104 = DATE_AND_TIME ( #122, #163 ) ;
#105 = PERSON_AND_ORGANIZATION ( #142, #68 ) ;
#106 = EDGE_CURVE ( 'NONE', #342, #107, #205, .T. ) ;
#107 = VERTEX_POINT ( 'NONE', #277 ) ;
#108 = CALENDAR_DATE ( 2019, 24, 7 ) ;
#109 = SECURITY_CLASSIFICATION ( '', '', #228 ) ;
#110 = DIRECTION ( 'NONE',  ( -0.0000000000000000000, -0.0000000000000000000, -1.000000000000000000 ) ) ;
#111 = EDGE_CURVE ( 'NONE', #232, #7, #196, .T. ) ;
#112 = CARTESIAN_POINT ( 'NONE',  ( 0.0000000000000000000, 0.0000000000000000000, 0.0000000000000000000 ) ) ;
#113 = ORIENTED_EDGE ( 'NONE', *, *, #106, .T. ) ;
#114 = CARTESIAN_POINT ( 'NONE',  ( 16.62476252515132200, -3.752876505807242000, 0.0000000000000000000 ) ) ;
#115 = DATE_TIME_ROLE ( 'creation_date' ) ;
#116 = PERSON_AND_ORGANIZATION ( #142, #68 ) ;
#117 = DIRECTION ( 'NONE',  ( -0.3826834323650831200, -0.9238795325112894000, 0.0000000000000000000 ) ) ;
#118 = APPLICATION_CONTEXT ( 'configuration controlled 3d designs of mechanical parts and assemblies' ) ;
#119 = DIRECTION ( 'NONE',  ( -0.3826834323650831200, -0.9238795325112894000, 0.0000000000000000000 ) ) ;
#120 = EDGE_LOOP ( 'NONE', ( #307, #15, #214, #91 ) ) ;
#121 = ORIENTED_EDGE ( 'NONE', *, *, #138, .F. ) ;
#122 = CALENDAR_DATE ( 2019, 24, 7 ) ;
#123 = PERSON_AND_ORGANIZATION_ROLE ( 'creator' ) ;
#124 = DIRECTION ( 'NONE',  ( -1.000000000000000000, 0.0000000000000000000, 0.0000000000000000000 ) ) ;
#125 = CARTESIAN_POINT ( 'NONE',  ( -3.377229353718057300, -12.03797281651137900, 20.00000000000000000 ) ) ;
#126 = CARTESIAN_POINT ( 'NONE',  ( -3.377229353718057300, -12.03797281651137900, 0.0000000000000000000 ) ) ;
#127 = CC_DESIGN_PERSON_AND_ORGANIZATION_ASSIGNMENT ( #266, #267, ( #69 ) ) ;
#128 = LINE ( 'NONE', #303, #50 ) ;
#129 = ORIENTED_EDGE ( 'NONE', *, *, #28, .T. ) ;
#130 = PERSON_AND_ORGANIZATION ( #142, #68 ) ;
#131 = CC_DESIGN_PERSON_AND_ORGANIZATION_ASSIGNMENT ( #187, #249, ( #109 ) ) ;
#132 = COORDINATED_UNIVERSAL_TIME_OFFSET ( 8, 0, .AHEAD. ) ;
#133 = VERTEX_POINT ( 'NONE', #147 ) ;
#134 =( GEOMETRIC_REPRESENTATION_CONTEXT ( 3 ) GLOBAL_UNCERTAINTY_ASSIGNED_CONTEXT ( ( #278 ) ) GLOBAL_UNIT_ASSIGNED_CONTEXT ( ( #241, #171, #268 ) ) REPRESENTATION_CONTEXT ( 'NONE', 'WORKASPACE' ) );
#135 = FACE_OUTER_BOUND ( 'NONE', #164, .T. ) ;
#136 = ORIENTED_EDGE ( 'NONE', *, *, #20, .T. ) ;
#137 = CC_DESIGN_APPROVAL ( #252, ( #61 ) ) ;
#138 = EDGE_CURVE ( 'NONE', #133, #337, #287, .T. ) ;
#139 = DIRECTION ( 'NONE',  ( 0.0000000000000000000, -0.0000000000000000000, -1.000000000000000000 ) ) ;
#140 = ORIENTED_EDGE ( 'NONE', *, *, #111, .F. ) ;
#141 = APPROVAL_PERSON_ORGANIZATION ( #233, #93, #182 ) ;
#142 = PERSON ( 'Î´Ö¸¶¨', 'Î´Ö¸¶¨', 'Î´Ö¸¶¨', ('Î´Ö¸¶¨'), ('Î´Ö¸¶¨'), ('Î´Ö¸¶¨') ) ;
#143 = DIRECTION ( 'NONE',  ( 0.0000000000000000000, 1.000000000000000000, 0.0000000000000000000 ) ) ;
#144 = DIRECTION ( 'NONE',  ( -0.0000000000000000000, -0.0000000000000000000, -1.000000000000000000 ) ) ;
#145 = DIRECTION ( 'NONE',  ( 0.9238795325112877400, 0.3826834323650871700, 0.0000000000000000000 ) ) ;
#146 = CC_DESIGN_DATE_AND_TIME_ASSIGNMENT ( #177, #115, ( #332 ) ) ;
#147 = CARTESIAN_POINT ( 'NONE',  ( -3.377229353718057300, -12.03797281651137900, 20.00000000000000000 ) ) ;
#148 = VECTOR ( 'NONE', #145, 1000.000000000000200 ) ;
#149 = ORIENTED_EDGE ( 'NONE', *, *, #273, .T. ) ;
#150 = EDGE_CURVE ( 'NONE', #320, #232, #181, .T. ) ;
#151 = PLANE ( 'NONE',  #87 ) ;
#152 = PERSON_AND_ORGANIZATION_ROLE ( 'design_owner' ) ;
#153 = ADVANCED_FACE ( 'NONE', ( #39 ), #12, .F. ) ;
#154 = DATE_AND_TIME ( #73, #221 ) ;
#155 = APPROVAL ( #304, 'Î´Ö¸¶¨' ) ;
#156 = VERTEX_POINT ( 'NONE', #19 ) ;
#157 = LOCAL_TIME ( 10, 11, 35.00000000000000000, #270 ) ;
#158 = AXIS2_PLACEMENT_3D ( 'NONE', #329, #85, #280 ) ;
#159 = LOCAL_TIME ( 10, 11, 35.00000000000000000, #132 ) ;
#160 = PRODUCT_RELATED_PRODUCT_CATEGORY ( 'detail', '', ( #274 ) ) ;
#161 = AXIS2_PLACEMENT_3D ( 'NONE', #36, #226, #60 ) ;
#162 = VECTOR ( 'NONE', #110, 1000.000000000000000 ) ;
#163 = LOCAL_TIME ( 10, 11, 35.00000000000000000, #62 ) ;
#164 = EDGE_LOOP ( 'NONE', ( #140, #318, #103, #75, #53 ) ) ;
#165 = DATE_AND_TIME ( #317, #3 ) ;
#166 = LINE ( 'NONE', #10, #306 ) ;
#167 = PERSON_AND_ORGANIZATION ( #142, #68 ) ;
#168 = CC_DESIGN_PERSON_AND_ORGANIZATION_ASSIGNMENT ( #99, #78, ( #69 ) ) ;
#169 = CC_DESIGN_PERSON_AND_ORGANIZATION_ASSIGNMENT ( #130, #312, ( #230 ) ) ;
#170 = LINE ( 'NONE', #79, #29 ) ;
#171 =( NAMED_UNIT ( * ) PLANE_ANGLE_UNIT ( ) SI_UNIT ( $, .RADIAN. ) );
#172 = DIRECTION ( 'NONE',  ( -0.0000000000000000000, -0.0000000000000000000, -1.000000000000000000 ) ) ;
#173 = EDGE_LOOP ( 'NONE', ( #74, #202, #40, #72 ) ) ;
#174 = COORDINATED_UNIVERSAL_TIME_OFFSET ( 8, 0, .AHEAD. ) ;
#175 = DATE_TIME_ROLE ( 'classification_date' ) ;
#176 = CARTESIAN_POINT ( 'NONE',  ( 16.62476252515132200, -3.752876505807242000, 20.00000000000000000 ) ) ;
#177 = DATE_AND_TIME ( #296, #159 ) ;
#178 = COORDINATED_UNIVERSAL_TIME_OFFSET ( 8, 0, .AHEAD. ) ;
#179 = CC_DESIGN_PERSON_AND_ORGANIZATION_ASSIGNMENT ( #22, #44, ( #61 ) ) ;
#180 = APPROVAL_ROLE ( '' ) ;
#181 = LINE ( 'NONE', #126, #26 ) ;
#182 = APPROVAL_ROLE ( '' ) ;
#183 = VERTEX_POINT ( 'NONE', #336 ) ;
#184 = CC_DESIGN_PERSON_AND_ORGANIZATION_ASSIGNMENT ( #105, #191, ( #34 ) ) ;
#185 = VECTOR ( 'NONE', #46, 1000.000000000000000 ) ;
#186 = EDGE_LOOP ( 'NONE', ( #102, #211, #323, #149, #129 ) ) ;
#187 = PERSON_AND_ORGANIZATION ( #142, #68 ) ;
#188 = CC_DESIGN_DATE_AND_TIME_ASSIGNMENT ( #154, #229, ( #61 ) ) ;
#189 = FACE_OUTER_BOUND ( 'NONE', #120, .T. ) ;
#190 = ORIENTED_EDGE ( 'NONE', *, *, #207, .F. ) ;
#191 = PERSON_AND_ORGANIZATION_ROLE ( 'design_owner' ) ;
#192 = CC_DESIGN_PERSON_AND_ORGANIZATION_ASSIGNMENT ( #199, #123, ( #332 ) ) ;
#193 = DIRECTION ( 'NONE',  ( 0.0000000000000000000, 0.0000000000000000000, 1.000000000000000000 ) ) ;
#194 = CARTESIAN_POINT ( 'NONE',  ( -11.66033378555272800, -3.754868384676660800, 0.0000000000000000000 ) ) ;
#195 = CARTESIAN_POINT ( 'NONE',  ( 16.62476252515132200, 16.24712349419276000, 20.00000000000000000 ) ) ;
#196 = LINE ( 'NONE', #269, #148 ) ;
#197 = CALENDAR_DATE ( 2019, 24, 7 ) ;
#198 = APPLICATION_PROTOCOL_DEFINITION ( 'international standard', 'config_control_design', 1994, #118 ) ;
#199 = PERSON_AND_ORGANIZATION ( #142, #68 ) ;
#200 = APPROVAL_STATUS ( 'not_yet_approved' ) ;
#201 = DIRECTION ( 'NONE',  ( 0.0000000000000000000, -1.000000000000000000, 0.0000000000000000000 ) ) ;
#202 = ORIENTED_EDGE ( 'NONE', *, *, #106, .F. ) ;
#203 = CALENDAR_DATE ( 2019, 24, 7 ) ;
#204 = ADVANCED_FACE ( 'NONE', ( #347 ), #151, .F. ) ;
#205 = LINE ( 'NONE', #42, #32 ) ;
#206 = APPROVAL_DATE_TIME ( #92, #93 ) ;
#207 = EDGE_CURVE ( 'NONE', #71, #320, #327, .T. ) ;
#208 = APPROVAL_PERSON_ORGANIZATION ( #101, #55, #275 ) ;
#209 = PRODUCT_DEFINITION_SHAPE ( 'NONE', 'NONE',  #61 ) ;
#210 = APPROVAL_DATE_TIME ( #276, #55 ) ;
#211 = ORIENTED_EDGE ( 'NONE', *, *, #309, .T. ) ;
#212 = CC_DESIGN_DATE_AND_TIME_ASSIGNMENT ( #30, #18, ( #237 ) ) ;
#213 = CC_DESIGN_APPROVAL ( #248, ( #109 ) ) ;
#214 = ORIENTED_EDGE ( 'NONE', *, *, #28, .F. ) ;
#215 = CALENDAR_DATE ( 2019, 24, 7 ) ;
#216 = AXIS2_PLACEMENT_3D ( 'NONE', #176, #223, #310 ) ;
#217 = ORIENTED_EDGE ( 'NONE', *, *, #224, .T. ) ;
#218 = CARTESIAN_POINT ( 'NONE',  ( -3.375237474848677500, 16.24712349419276000, 20.00000000000000000 ) ) ;
#219 = DIRECTION ( 'NONE',  ( 1.000000000000000000, 0.0000000000000000000, 0.0000000000000000000 ) ) ;
#220 = DIRECTION ( 'NONE',  ( 0.3826834323650831200, 0.9238795325112894000, 0.0000000000000000000 ) ) ;
#221 = LOCAL_TIME ( 10, 11, 35.00000000000000000, #290 ) ;
#222 = DIRECTION ( 'NONE',  ( 0.0000000000000000000, 0.0000000000000000000, 1.000000000000000000 ) ) ;
#223 = DIRECTION ( 'NONE',  ( -1.000000000000000000, 0.0000000000000000000, 0.0000000000000000000 ) ) ;
#224 = EDGE_CURVE ( 'NONE', #183, #320, #48, .T. ) ;
#225 = CARTESIAN_POINT ( 'NONE',  ( -3.377229353718057300, -12.03797281651137900, 20.00000000000000000 ) ) ;
#226 = DIRECTION ( 'NONE',  ( -0.3826834323650871700, 0.9238795325112878500, 0.0000000000000000000 ) ) ;
#227 = APPROVAL_DATE_TIME ( #67, #252 ) ;
#228 = SECURITY_CLASSIFICATION_LEVEL ( 'unclassified' ) ;
#229 = DATE_TIME_ROLE ( 'creation_date' ) ;
#230 = PRODUCT_DEFINITION_FORMATION_WITH_SPECIFIED_SOURCE ( 'ÈÎºÎ', '', #274, .NOT_KNOWN. ) ;
#231 = PERSON_AND_ORGANIZATION ( #142, #68 ) ;
#232 = VERTEX_POINT ( 'NONE', #272 ) ;
#233 = PERSON_AND_ORGANIZATION ( #142, #68 ) ;
#234 = AXIS2_PLACEMENT_3D ( 'NONE', #244, #193, #11 ) ;
#235 = LINE ( 'NONE', #295, #57 ) ;
#236 = AXIS2_PLACEMENT_3D ( 'NONE', #35, #222, #219 ) ;
#237 = SECURITY_CLASSIFICATION ( '', '', #308 ) ;
#238 = COORDINATED_UNIVERSAL_TIME_OFFSET ( 8, 0, .AHEAD. ) ;
#239 = APPROVAL_ROLE ( '' ) ;
#240 = CC_DESIGN_PERSON_AND_ORGANIZATION_ASSIGNMENT ( #54, #96, ( #237 ) ) ;
#241 =( LENGTH_UNIT ( ) NAMED_UNIT ( * ) SI_UNIT ( .MILLI., .METRE. ) );
#242 = APPROVAL ( #14, 'Î´Ö¸¶¨' ) ;
#243 = CARTESIAN_POINT ( 'NONE',  ( -3.375237474848677500, 16.24712349419276000, 20.00000000000000000 ) ) ;
#244 = CARTESIAN_POINT ( 'NONE',  ( 0.0000000000000000000, 0.0000000000000000000, 0.0000000000000000000 ) ) ;
#245 = DIRECTION ( 'NONE',  ( 0.9238795325112877400, 0.3826834323650871700, 0.0000000000000000000 ) ) ;
#246 = APPLICATION_PROTOCOL_DEFINITION ( 'international standard', 'config_control_design', 1994, #82 ) ;
#247 = APPLICATION_CONTEXT ( 'configuration controlled 3d designs of mechanical parts and assemblies' ) ;
#248 = APPROVAL ( #338, 'Î´Ö¸¶¨' ) ;
#249 = PERSON_AND_ORGANIZATION_ROLE ( 'classification_officer' ) ;
#250 = LINE ( 'NONE', #243, #255 ) ;
#251 = ADVANCED_FACE ( 'NONE', ( #135 ), #340, .F. ) ;
#252 = APPROVAL ( #200, 'Î´Ö¸¶¨' ) ;
#253 = ORIENTED_EDGE ( 'NONE', *, *, #51, .T. ) ;
#254 = CALENDAR_DATE ( 2019, 24, 7 ) ;
#255 = VECTOR ( 'NONE', #117, 1000.000000000000200 ) ;
#256 = EDGE_LOOP ( 'NONE', ( #217, #190, #315, #253 ) ) ;
#257 = CC_DESIGN_SECURITY_CLASSIFICATION ( #237, ( #230 ) ) ;
#258 = CC_DESIGN_APPROVAL ( #242, ( #230 ) ) ;
#259 = FACE_OUTER_BOUND ( 'NONE', #186, .T. ) ;
#260 = CLOSED_SHELL ( 'NONE', ( #64, #153, #204, #313, #300, #97, #251 ) ) ;
#261 = LOCAL_TIME ( 10, 11, 35.00000000000000000, #238 ) ;
#262 = ADVANCED_BREP_SHAPE_REPRESENTATION ( '365503', ( #80, #234 ), #134 ) ;
#263 = CC_DESIGN_SECURITY_CLASSIFICATION ( #109, ( #69 ) ) ;
#264 = FACE_OUTER_BOUND ( 'NONE', #256, .T. ) ;
#265 = ORIENTED_EDGE ( 'NONE', *, *, #23, .T. ) ;
#266 = PERSON_AND_ORGANIZATION ( #142, #68 ) ;
#267 = PERSON_AND_ORGANIZATION_ROLE ( 'design_supplier' ) ;
#268 =( NAMED_UNIT ( * ) SI_UNIT ( $, .STERADIAN. ) SOLID_ANGLE_UNIT ( ) );
#269 = CARTESIAN_POINT ( 'NONE',  ( -3.377229353718057300, -12.03797281651137900, 0.0000000000000000000 ) ) ;
#270 = COORDINATED_UNIVERSAL_TIME_OFFSET ( 8, 0, .AHEAD. ) ;
#271 = CARTESIAN_POINT ( 'NONE',  ( 16.62476252515132200, -3.752876505807242000, 20.00000000000000000 ) ) ;
#272 = CARTESIAN_POINT ( 'NONE',  ( -3.377229353718057300, -12.03797281651137900, 0.0000000000000000000 ) ) ;
#273 = EDGE_CURVE ( 'NONE', #156, #71, #250, .T. ) ;
#274 = PRODUCT ( '365503', '365503', '', ( #45 ) ) ;
#275 = APPROVAL_ROLE ( '' ) ;
#276 = DATE_AND_TIME ( #311, #49 ) ;
#277 = CARTESIAN_POINT ( 'NONE',  ( 16.62476252515132200, 16.24712349419276000, 0.0000000000000000000 ) ) ;
#278 = UNCERTAINTY_MEASURE_WITH_UNIT (LENGTH_MEASURE( 1.000000000000000100E-005 ), #241, 'distance_accuracy_value', 'NONE');
#279 = LINE ( 'NONE', #271, #1 ) ;
#280 = DIRECTION ( 'NONE',  ( 1.000000000000000000, 0.0000000000000000000, -0.0000000000000000000 ) ) ;
#281 = PERSON_AND_ORGANIZATION ( #142, #68 ) ;
#282 = APPROVAL_ROLE ( '' ) ;
#283 = APPROVAL_STATUS ( 'not_yet_approved' ) ;
#284 = EDGE_CURVE ( 'NONE', #337, #7, #279, .T. ) ;
#285 = LOCAL_TIME ( 10, 11, 35.00000000000000000, #174 ) ;
#286 = AXIS2_PLACEMENT_3D ( 'NONE', #334, #9, #220 ) ;
#287 = LINE ( 'NONE', #125, #98 ) ;
#288 = SHAPE_DEFINITION_REPRESENTATION ( #209, #262 ) ;
#289 = DESIGN_CONTEXT ( 'detailed design', #247, 'design' ) ;
#290 = COORDINATED_UNIVERSAL_TIME_OFFSET ( 8, 0, .AHEAD. ) ;
#291 = AXIS2_PLACEMENT_3D ( 'NONE', #112, #324, #325 ) ;
#292 = LINE ( 'NONE', #218, #83 ) ;
#293 = ORIENTED_EDGE ( 'NONE', *, *, #284, .F. ) ;
#294 = LOCAL_TIME ( 10, 11, 35.00000000000000000, #59 ) ;
#295 = CARTESIAN_POINT ( 'NONE',  ( -3.377229353718057300, -12.03797281651137900, 20.00000000000000000 ) ) ;
#296 = CALENDAR_DATE ( 2019, 24, 7 ) ;
#297 = PLANE ( 'NONE',  #286 ) ;
#298 = VECTOR ( 'NONE', #2, 1000.000000000000000 ) ;
#299 = CARTESIAN_POINT ( 'NONE',  ( 16.62476252515132200, -3.752876505807242000, 20.00000000000000000 ) ) ;
#300 = ADVANCED_FACE ( 'NONE', ( #189 ), #4, .F. ) ;
#301 = DIRECTION ( 'NONE',  ( -1.000000000000000000, 0.0000000000000000000, 0.0000000000000000000 ) ) ;
#302 = APPROVAL_DATE_TIME ( #165, #155 ) ;
#303 = CARTESIAN_POINT ( 'NONE',  ( 16.62476252515132200, -3.752876505807242000, 20.00000000000000000 ) ) ;
#304 = APPROVAL_STATUS ( 'not_yet_approved' ) ;
#305 = DIRECTION ( 'NONE',  ( 0.7071067811865455700, -0.7071067811865493500, -0.0000000000000000000 ) ) ;
#306 = VECTOR ( 'NONE', #124, 1000.000000000000000 ) ;
#307 = ORIENTED_EDGE ( 'NONE', *, *, #150, .T. ) ;
#308 = SECURITY_CLASSIFICATION_LEVEL ( 'unclassified' ) ;
#309 = EDGE_CURVE ( 'NONE', #337, #342, #128, .T. ) ;
#310 = DIRECTION ( 'NONE',  ( 0.0000000000000000000, 0.0000000000000000000, 1.000000000000000000 ) ) ;
#311 = CALENDAR_DATE ( 2019, 24, 7 ) ;
#312 = PERSON_AND_ORGANIZATION_ROLE ( 'design_supplier' ) ;
#313 = ADVANCED_FACE ( 'NONE', ( #264 ), #297, .F. ) ;
#314 = VECTOR ( 'NONE', #119, 1000.000000000000200 ) ;
#315 = ORIENTED_EDGE ( 'NONE', *, *, #273, .F. ) ;
#316 = LOCAL_TIME ( 10, 11, 35.00000000000000000, #343 ) ;
#317 = CALENDAR_DATE ( 2019, 24, 7 ) ;
#318 = ORIENTED_EDGE ( 'NONE', *, *, #150, .F. ) ;
#319 = APPROVAL_PERSON_ORGANIZATION ( #116, #155, #239 ) ;
#320 = VERTEX_POINT ( 'NONE', #194 ) ;
#321 = CC_DESIGN_DATE_AND_TIME_ASSIGNMENT ( #104, #175, ( #109 ) ) ;
#322 = DIRECTION ( 'NONE',  ( 0.7071067811865455700, -0.7071067811865493500, -0.0000000000000000000 ) ) ;
#323 = ORIENTED_EDGE ( 'NONE', *, *, #65, .T. ) ;
#324 = DIRECTION ( 'NONE',  ( 0.0000000000000000000, 0.0000000000000000000, 1.000000000000000000 ) ) ;
#325 = DIRECTION ( 'NONE',  ( 1.000000000000000000, 0.0000000000000000000, -0.0000000000000000000 ) ) ;
#326 = CARTESIAN_POINT ( 'NONE',  ( -3.377229353718057300, -12.03797281651137900, 20.00000000000000000 ) ) ;
#327 = LINE ( 'NONE', #21, #185 ) ;
#328 = DIRECTION ( 'NONE',  ( -0.7071067811865455700, 0.7071067811865493500, 0.0000000000000000000 ) ) ;
#329 = CARTESIAN_POINT ( 'NONE',  ( 0.0000000000000000000, 0.0000000000000000000, 20.00000000000000000 ) ) ;
#330 = ORIENTED_EDGE ( 'NONE', *, *, #111, .T. ) ;
#331 = DATE_AND_TIME ( #197, #316 ) ;
#332 = PRODUCT_DEFINITION ( 'Î´Öª', '', #69, #13 ) ;
#333 = PRODUCT_DEFINITION_SHAPE ( 'NONE', 'NONE',  #332 ) ;
#334 = CARTESIAN_POINT ( 'NONE',  ( -3.375237474848677500, 16.24712349419276000, 20.00000000000000000 ) ) ;
#335 = CARTESIAN_POINT ( 'NONE',  ( -11.66033378555272800, -3.754868384676660800, 20.00000000000000000 ) ) ;
#336 = CARTESIAN_POINT ( 'NONE',  ( -3.375237474848677500, 16.24712349419276000, 0.0000000000000000000 ) ) ;
#337 = VERTEX_POINT ( 'NONE', #299 ) ;
#338 = APPROVAL_STATUS ( 'not_yet_approved' ) ;
#339 = APPROVAL_ROLE ( '' ) ;
#340 = PLANE ( 'NONE',  #291 ) ;
#341 = ORIENTED_EDGE ( 'NONE', *, *, #51, .F. ) ;
#342 = VERTEX_POINT ( 'NONE', #56 ) ;
#343 = COORDINATED_UNIVERSAL_TIME_OFFSET ( 8, 0, .AHEAD. ) ;
#344 = PRODUCT_RELATED_PRODUCT_CATEGORY ( 'detail', '', ( #34 ) ) ;
#345 = EDGE_LOOP ( 'NONE', ( #330, #293, #121, #136 ) ) ;
#346 = PERSON_AND_ORGANIZATION ( #142, #68 ) ;
#347 = FACE_OUTER_BOUND ( 'NONE', #52, .T. ) ;
#348 = PERSON_AND_ORGANIZATION ( #142, #68 ) ;
ENDSEC;
END-ISO-10303-21;
