ISO-10303-21;
HEADER;
FILE_DESCRIPTION (( 'STEP AP203' ),
    '1' );
FILE_NAME ('365505.STEP',
    '2019-07-24T02:13:38',
    ( '' ),
    ( '' ),
    'SwSTEP 2.0',
    'SolidWorks 2016',
    '' );
FILE_SCHEMA (( 'CONFIG_CONTROL_DESIGN' ));
ENDSEC;

DATA;
#1 = CALENDAR_DATE ( 2019, 24, 7 ) ;
#2 = APPROVAL_PERSON_ORGANIZATION ( #132, #239, #148 ) ;
#3 = VECTOR ( 'NONE', #10, 1000.000000000000000 ) ;
#4 = DIRECTION ( 'NONE',  ( 0.0000000000000000000, 1.000000000000000000, 0.0000000000000000000 ) ) ;
#5 = CC_DESIGN_SECURITY_CLASSIFICATION ( #246, ( #218 ) ) ;
#6 = ORIENTED_EDGE ( 'NONE', *, *, #96, .T. ) ;
#7 = APPROVAL_DATE_TIME ( #35, #78 ) ;
#8 = CARTESIAN_POINT ( 'NONE',  ( 16.62476252515132200, -23.75287650580724400, 0.0000000000000000000 ) ) ;
#9 = LINE ( 'NONE', #119, #49 ) ;
#10 = DIRECTION ( 'NONE',  ( -1.000000000000000000, -8.673617379884036700E-017, 0.0000000000000000000 ) ) ;
#11 = VERTEX_POINT ( 'NONE', #327 ) ;
#12 = CARTESIAN_POINT ( 'NONE',  ( -39.94543009625678600, -23.75686026354607700, 40.00000000000000000 ) ) ;
#13 = DIRECTION ( 'NONE',  ( 1.000000000000000000, 0.0000000000000000000, -0.0000000000000000000 ) ) ;
#14 = CARTESIAN_POINT ( 'NONE',  ( 16.62476252515132200, -23.75287650580724400, 40.00000000000000000 ) ) ;
#15 = PERSON_AND_ORGANIZATION_ROLE ( 'creator' ) ;
#16 = APPLICATION_CONTEXT ( 'configuration controlled 3d designs of mechanical parts and assemblies' ) ;
#17 = PRODUCT_DEFINITION_SHAPE ( 'NONE', 'NONE',  #341 ) ;
#18 = ORIENTED_EDGE ( 'NONE', *, *, #194, .T. ) ;
#19 = FACE_OUTER_BOUND ( 'NONE', #91, .T. ) ;
#20 = PRODUCT_DEFINITION ( 'Î´Öª', '', #218, #99 ) ;
#21 = PERSON_AND_ORGANIZATION ( #279, #137 ) ;
#22 = ORIENTED_EDGE ( 'NONE', *, *, #280, .F. ) ;
#23 = ADVANCED_BREP_SHAPE_REPRESENTATION ( '365505', ( #186, #202 ), #250 ) ;
#24 = CARTESIAN_POINT ( 'NONE',  ( 0.0000000000000000000, 0.0000000000000000000, 0.0000000000000000000 ) ) ;
#25 = CARTESIAN_POINT ( 'NONE',  ( -23.37922123258743300, -40.32306912721551800, 0.0000000000000000000 ) ) ;
#26 = DIRECTION ( 'NONE',  ( 0.7071067811865494600, 0.7071067811865456900, -0.0000000000000000000 ) ) ;
#27 = PRODUCT ( '365505', '365505', '', ( #291 ) ) ;
#28 = EDGE_CURVE ( 'NONE', #340, #308, #344, .T. ) ;
#29 = DIRECTION ( 'NONE',  ( 8.673617379884037900E-017, -1.000000000000000000, 0.0000000000000000000 ) ) ;
#30 = DIRECTION ( 'NONE',  ( 0.0000000000000000000, 0.0000000000000000000, 1.000000000000000000 ) ) ;
#31 = PRODUCT_DEFINITION_SHAPE ( 'NONE', 'NONE',  #20 ) ;
#32 = ORIENTED_EDGE ( 'NONE', *, *, #52, .F. ) ;
#33 = CLOSED_SHELL ( 'NONE', ( #214, #93, #164, #198, #141, #196, #65 ) ) ;
#34 = DIRECTION ( 'NONE',  ( -0.3826834323650832900, -0.9238795325112894000, 0.0000000000000000000 ) ) ;
#35 = DATE_AND_TIME ( #117, #75 ) ;
#36 = CARTESIAN_POINT ( 'NONE',  ( 16.62476252515132200, 16.24712349419276000, 40.00000000000000000 ) ) ;
#37 = VECTOR ( 'NONE', #287, 1000.000000000000000 ) ;
#38 = DIRECTION ( 'NONE',  ( 0.0000000000000000000, 1.000000000000000000, 0.0000000000000000000 ) ) ;
#39 = ORIENTED_EDGE ( 'NONE', *, *, #28, .F. ) ;
#40 = ORIENTED_EDGE ( 'NONE', *, *, #175, .F. ) ;
#41 = AXIS2_PLACEMENT_3D ( 'NONE', #334, #74, #95 ) ;
#42 = PERSON_AND_ORGANIZATION_ROLE ( 'creator' ) ;
#43 = CALENDAR_DATE ( 2019, 24, 7 ) ;
#44 = PERSON_AND_ORGANIZATION_ROLE ( 'design_owner' ) ;
#45 = APPROVAL_PERSON_ORGANIZATION ( #182, #59, #173 ) ;
#46 = ORIENTED_EDGE ( 'NONE', *, *, #260, .T. ) ;
#47 = DATE_TIME_ROLE ( 'creation_date' ) ;
#48 = PERSON_AND_ORGANIZATION ( #279, #137 ) ;
#49 = VECTOR ( 'NONE', #288, 1000.000000000000000 ) ;
#50 = LINE ( 'NONE', #8, #67 ) ;
#51 = ORIENTED_EDGE ( 'NONE', *, *, #126, .T. ) ;
#52 = EDGE_CURVE ( 'NONE', #340, #328, #159, .T. ) ;
#53 = CALENDAR_DATE ( 2019, 24, 7 ) ;
#54 = VECTOR ( 'NONE', #136, 1000.000000000000100 ) ;
#55 = ORIENTED_EDGE ( 'NONE', *, *, #111, .F. ) ;
#56 = DIRECTION ( 'NONE',  ( 0.9238795325112878500, 0.3826834323650873400, 0.0000000000000000000 ) ) ;
#57 = CARTESIAN_POINT ( 'NONE',  ( -23.37922123258743300, -40.32306912721551800, 0.0000000000000000000 ) ) ;
#58 = CALENDAR_DATE ( 2019, 24, 7 ) ;
#59 = APPROVAL ( #151, 'Î´Ö¸¶¨' ) ;
#60 = CARTESIAN_POINT ( 'NONE',  ( -23.37523747484867400, 16.24712349419275600, 40.00000000000000000 ) ) ;
#61 = DATE_AND_TIME ( #139, #204 ) ;
#62 = PERSON_AND_ORGANIZATION ( #279, #137 ) ;
#63 = CARTESIAN_POINT ( 'NONE',  ( -23.37523747484867400, 16.24712349419275600, 40.00000000000000000 ) ) ;
#64 = VECTOR ( 'NONE', #339, 1000.000000000000200 ) ;
#65 = ADVANCED_FACE ( 'NONE', ( #19 ), #299, .F. ) ;
#66 = PLANE ( 'NONE',  #235 ) ;
#67 = VECTOR ( 'NONE', #38, 1000.000000000000000 ) ;
#68 = CC_DESIGN_PERSON_AND_ORGANIZATION_ASSIGNMENT ( #104, #102, ( #246 ) ) ;
#69 =( LENGTH_UNIT ( ) NAMED_UNIT ( * ) SI_UNIT ( .MILLI., .METRE. ) );
#70 = COORDINATED_UNIVERSAL_TIME_OFFSET ( 8, 0, .AHEAD. ) ;
#71 = PERSON_AND_ORGANIZATION_ROLE ( 'classification_officer' ) ;
#72 = AXIS2_PLACEMENT_3D ( 'NONE', #88, #331, #160 ) ;
#73 = ORIENTED_EDGE ( 'NONE', *, *, #52, .T. ) ;
#74 = DIRECTION ( 'NONE',  ( 0.0000000000000000000, 0.0000000000000000000, 1.000000000000000000 ) ) ;
#75 = LOCAL_TIME ( 10, 13, 38.00000000000000000, #70 ) ;
#76 = FACE_OUTER_BOUND ( 'NONE', #311, .T. ) ;
#77 = COORDINATED_UNIVERSAL_TIME_OFFSET ( 8, 0, .AHEAD. ) ;
#78 = APPROVAL ( #293, 'Î´Ö¸¶¨' ) ;
#79 = APPROVAL_DATE_TIME ( #140, #223 ) ;
#80 = VECTOR ( 'NONE', #222, 1000.000000000000000 ) ;
#81 = DESIGN_CONTEXT ( 'detailed design', #229, 'design' ) ;
#82 = ORIENTED_EDGE ( 'NONE', *, *, #238, .T. ) ;
#83 = ORIENTED_EDGE ( 'NONE', *, *, #28, .T. ) ;
#84 = PLANE ( 'NONE',  #72 ) ;
#85 = CARTESIAN_POINT ( 'NONE',  ( 16.62476252515132200, 16.24712349419276000, 40.00000000000000000 ) ) ;
#86 = DIRECTION ( 'NONE',  ( -0.0000000000000000000, -0.0000000000000000000, -1.000000000000000000 ) ) ;
#87 = CALENDAR_DATE ( 2019, 24, 7 ) ;
#88 = CARTESIAN_POINT ( 'NONE',  ( 16.62476252515132200, -23.75287650580724400, 40.00000000000000000 ) ) ;
#89 = LINE ( 'NONE', #12, #80 ) ;
#90 = DIRECTION ( 'NONE',  ( 0.3826834323650832900, 0.9238795325112894000, 0.0000000000000000000 ) ) ;
#91 = EDGE_LOOP ( 'NONE', ( #55, #266, #107, #120, #22 ) ) ;
#92 = CARTESIAN_POINT ( 'NONE',  ( -23.37922123258743300, -40.32306912721551800, 40.00000000000000000 ) ) ;
#93 = ADVANCED_FACE ( 'NONE', ( #178 ), #84, .F. ) ;
#94 = EDGE_CURVE ( 'NONE', #321, #340, #326, .T. ) ;
#95 = DIRECTION ( 'NONE',  ( 1.000000000000000000, 0.0000000000000000000, 0.0000000000000000000 ) ) ;
#96 = EDGE_CURVE ( 'NONE', #11, #333, #269, .T. ) ;
#97 = APPROVAL_STATUS ( 'not_yet_approved' ) ;
#98 = CC_DESIGN_APPROVAL ( #78, ( #233 ) ) ;
#99 = DESIGN_CONTEXT ( 'detailed design', #16, 'design' ) ;
#100 = APPLICATION_PROTOCOL_DEFINITION ( 'international standard', 'config_control_design', 1994, #16 ) ;
#101 = COORDINATED_UNIVERSAL_TIME_OFFSET ( 8, 0, .AHEAD. ) ;
#102 = PERSON_AND_ORGANIZATION_ROLE ( 'classification_officer' ) ;
#103 = VERTEX_POINT ( 'NONE', #135 ) ;
#104 = PERSON_AND_ORGANIZATION ( #279, #137 ) ;
#105 = CC_DESIGN_APPROVAL ( #150, ( #341 ) ) ;
#106 = EDGE_LOOP ( 'NONE', ( #110, #243, #292, #46 ) ) ;
#107 = ORIENTED_EDGE ( 'NONE', *, *, #315, .F. ) ;
#108 = LOCAL_TIME ( 10, 13, 38.00000000000000000, #294 ) ;
#109 = LINE ( 'NONE', #57, #54 ) ;
#110 = ORIENTED_EDGE ( 'NONE', *, *, #130, .T. ) ;
#111 = EDGE_CURVE ( 'NONE', #245, #179, #197, .T. ) ;
#112 = CC_DESIGN_APPROVAL ( #239, ( #218 ) ) ;
#113 = DIRECTION ( 'NONE',  ( -0.7071067811865455700, 0.7071067811865493500, 0.0000000000000000000 ) ) ;
#114 = DIRECTION ( 'NONE',  ( 0.9238795325112895100, -0.3826834323650833400, 0.0000000000000000000 ) ) ;
#115 = ORIENTED_EDGE ( 'NONE', *, *, #94, .F. ) ;
#116 = DIRECTION ( 'NONE',  ( 1.000000000000000000, 0.0000000000000000000, 0.0000000000000000000 ) ) ;
#117 = CALENDAR_DATE ( 2019, 24, 7 ) ;
#118 = LINE ( 'NONE', #63, #37 ) ;
#119 = CARTESIAN_POINT ( 'NONE',  ( -23.37922123258743300, -40.32306912721551800, 40.00000000000000000 ) ) ;
#120 = ORIENTED_EDGE ( 'NONE', *, *, #263, .F. ) ;
#121 = PRODUCT_RELATED_PRODUCT_CATEGORY ( 'detail', '', ( #138 ) ) ;
#122 =( NAMED_UNIT ( * ) PLANE_ANGLE_UNIT ( ) SI_UNIT ( $, .RADIAN. ) );
#123 = CC_DESIGN_DATE_AND_TIME_ASSIGNMENT ( #206, #47, ( #341 ) ) ;
#124 = APPROVAL_ROLE ( '' ) ;
#125 = APPROVAL_STATUS ( 'not_yet_approved' ) ;
#126 = EDGE_CURVE ( 'NONE', #333, #321, #284, .T. ) ;
#127 = PERSON_AND_ORGANIZATION_ROLE ( 'design_owner' ) ;
#128 = VECTOR ( 'NONE', #56, 999.9999999999998900 ) ;
#129 = DATE_AND_TIME ( #320, #185 ) ;
#130 = EDGE_CURVE ( 'NONE', #157, #245, #109, .T. ) ;
#131 = DATE_AND_TIME ( #1, #302 ) ;
#132 = PERSON_AND_ORGANIZATION ( #279, #137 ) ;
#133 = APPROVAL_PERSON_ORGANIZATION ( #259, #223, #295 ) ;
#134 = LINE ( 'NONE', #283, #143 ) ;
#135 = CARTESIAN_POINT ( 'NONE',  ( -23.37523747484867400, 16.24712349419275600, 0.0000000000000000000 ) ) ;
#136 = DIRECTION ( 'NONE',  ( 0.7071067811865455700, -0.7071067811865493500, -0.0000000000000000000 ) ) ;
#137 = ORGANIZATION ( 'Î´Ö¸¶¨', 'Î´Ö¸¶¨', '' ) ;
#138 = PRODUCT ( '365505', '365505', '', ( #176 ) ) ;
#139 = CALENDAR_DATE ( 2019, 24, 7 ) ;
#140 = DATE_AND_TIME ( #345, #149 ) ;
#141 = ADVANCED_FACE ( 'NONE', ( #255 ), #247, .F. ) ;
#142 = EDGE_CURVE ( 'NONE', #328, #11, #298, .T. ) ;
#143 = VECTOR ( 'NONE', #224, 1000.000000000000000 ) ;
#144 = DIRECTION ( 'NONE',  ( -0.9238795325112877400, -0.3826834323650873400, 0.0000000000000000000 ) ) ;
#145 = CARTESIAN_POINT ( 'NONE',  ( 16.62476252515132200, 16.24712349419276000, 0.0000000000000000000 ) ) ;
#146 = PLANE ( 'NONE',  #201 ) ;
#147 = CC_DESIGN_PERSON_AND_ORGANIZATION_ASSIGNMENT ( #264, #44, ( #138 ) ) ;
#148 = APPROVAL_ROLE ( '' ) ;
#149 = LOCAL_TIME ( 10, 13, 38.00000000000000000, #221 ) ;
#150 = APPROVAL ( #153, 'Î´Ö¸¶¨' ) ;
#151 = APPROVAL_STATUS ( 'not_yet_approved' ) ;
#152 = FACE_OUTER_BOUND ( 'NONE', #183, .T. ) ;
#153 = APPROVAL_STATUS ( 'not_yet_approved' ) ;
#154 = EDGE_LOOP ( 'NONE', ( #199, #39, #115, #212 ) ) ;
#155 = CC_DESIGN_DATE_AND_TIME_ASSIGNMENT ( #249, #200, ( #233 ) ) ;
#156 = PERSON_AND_ORGANIZATION ( #279, #137 ) ;
#157 = VERTEX_POINT ( 'NONE', #310 ) ;
#158 = ORIENTED_EDGE ( 'NONE', *, *, #194, .F. ) ;
#159 = LINE ( 'NONE', #329, #230 ) ;
#160 = DIRECTION ( 'NONE',  ( 0.0000000000000000000, 0.0000000000000000000, 1.000000000000000000 ) ) ;
#161 = COORDINATED_UNIVERSAL_TIME_OFFSET ( 8, 0, .AHEAD. ) ;
#162 = CC_DESIGN_PERSON_AND_ORGANIZATION_ASSIGNMENT ( #335, #42, ( #20 ) ) ;
#163 = CC_DESIGN_PERSON_AND_ORGANIZATION_ASSIGNMENT ( #21, #234, ( #341 ) ) ;
#164 = ADVANCED_FACE ( 'NONE', ( #347 ), #337, .F. ) ;
#165 = COORDINATED_UNIVERSAL_TIME_OFFSET ( 8, 0, .AHEAD. ) ;
#166 = PLANE ( 'NONE',  #180 ) ;
#167 = CARTESIAN_POINT ( 'NONE',  ( 16.62476252515132200, 16.24712349419276000, 40.00000000000000000 ) ) ;
#168 = ORIENTED_EDGE ( 'NONE', *, *, #126, .F. ) ;
#169 = APPLICATION_PROTOCOL_DEFINITION ( 'international standard', 'config_control_design', 1994, #174 ) ;
#170 = CC_DESIGN_SECURITY_CLASSIFICATION ( #233, ( #205 ) ) ;
#171 = APPROVAL_ROLE ( '' ) ;
#172 = AXIS2_PLACEMENT_3D ( 'NONE', #24, #219, #244 ) ;
#173 = APPROVAL_ROLE ( '' ) ;
#174 = APPLICATION_CONTEXT ( 'configuration controlled 3d designs of mechanical parts and assemblies' ) ;
#175 = EDGE_CURVE ( 'NONE', #321, #179, #134, .T. ) ;
#176 = MECHANICAL_CONTEXT ( 'NONE', #174, 'mechanical' ) ;
#177 = SHAPE_DEFINITION_REPRESENTATION ( #17, #23 ) ;
#178 = FACE_OUTER_BOUND ( 'NONE', #154, .T. ) ;
#179 = VERTEX_POINT ( 'NONE', #338 ) ;
#180 = AXIS2_PLACEMENT_3D ( 'NONE', #307, #309, #144 ) ;
#181 = CC_DESIGN_PERSON_AND_ORGANIZATION_ASSIGNMENT ( #248, #342, ( #218 ) ) ;
#182 = PERSON_AND_ORGANIZATION ( #279, #137 ) ;
#183 = EDGE_LOOP ( 'NONE', ( #209, #332, #258, #18 ) ) ;
#184 = APPROVAL_DATE_TIME ( #325, #150 ) ;
#185 = LOCAL_TIME ( 10, 13, 38.00000000000000000, #165 ) ;
#186 = MANIFOLD_SOLID_BREP ( 'Í¹Ì¨-À­Éì1', #33 ) ;
#187 = CARTESIAN_POINT ( 'NONE',  ( -23.37922123258743300, -40.32306912721551800, 40.00000000000000000 ) ) ;
#188 = VECTOR ( 'NONE', #34, 1000.000000000000200 ) ;
#189 = APPROVAL_PERSON_ORGANIZATION ( #296, #150, #124 ) ;
#190 = DIRECTION ( 'NONE',  ( -1.000000000000000000, -8.673617379884036700E-017, 0.0000000000000000000 ) ) ;
#191 = CARTESIAN_POINT ( 'NONE',  ( -23.37922123258743300, -40.32306912721551800, 40.00000000000000000 ) ) ;
#192 = CC_DESIGN_PERSON_AND_ORGANIZATION_ASSIGNMENT ( #62, #15, ( #205 ) ) ;
#193 = CARTESIAN_POINT ( 'NONE',  ( -23.37523747484867400, 16.24712349419275600, 0.0000000000000000000 ) ) ;
#194 = EDGE_CURVE ( 'NONE', #328, #103, #118, .T. ) ;
#195 = CARTESIAN_POINT ( 'NONE',  ( -23.37523747484867400, 16.24712349419275600, 40.00000000000000000 ) ) ;
#196 = ADVANCED_FACE ( 'NONE', ( #305 ), #66, .T. ) ;
#197 = LINE ( 'NONE', #25, #215 ) ;
#198 = ADVANCED_FACE ( 'NONE', ( #152 ), #146, .F. ) ;
#199 = ORIENTED_EDGE ( 'NONE', *, *, #280, .T. ) ;
#200 = DATE_TIME_ROLE ( 'classification_date' ) ;
#201 = AXIS2_PLACEMENT_3D ( 'NONE', #195, #114, #90 ) ;
#202 = AXIS2_PLACEMENT_3D ( 'NONE', #227, #30, #116 ) ;
#203 = APPLICATION_PROTOCOL_DEFINITION ( 'international standard', 'config_control_design', 1994, #262 ) ;
#204 = LOCAL_TIME ( 10, 13, 38.00000000000000000, #77 ) ;
#205 = PRODUCT_DEFINITION_FORMATION_WITH_SPECIFIED_SOURCE ( 'ÈÎºÎ', '', #27, .NOT_KNOWN. ) ;
#206 = DATE_AND_TIME ( #319, #297 ) ;
#207 = APPROVAL_ROLE ( '' ) ;
#208 = VECTOR ( 'NONE', #4, 1000.000000000000000 ) ;
#209 = ORIENTED_EDGE ( 'NONE', *, *, #315, .T. ) ;
#210 = CC_DESIGN_APPROVAL ( #59, ( #20 ) ) ;
#211 = COORDINATED_UNIVERSAL_TIME_OFFSET ( 8, 0, .AHEAD. ) ;
#212 = ORIENTED_EDGE ( 'NONE', *, *, #175, .T. ) ;
#213 = APPROVAL_DATE_TIME ( #273, #59 ) ;
#214 = ADVANCED_FACE ( 'NONE', ( #76 ), #166, .F. ) ;
#215 = VECTOR ( 'NONE', #275, 999.9999999999998900 ) ;
#216 = CARTESIAN_POINT ( 'NONE',  ( -23.37922123258743300, -40.32306912721551800, 40.00000000000000000 ) ) ;
#217 = PERSON_AND_ORGANIZATION ( #279, #137 ) ;
#218 = PRODUCT_DEFINITION_FORMATION_WITH_SPECIFIED_SOURCE ( 'ÈÎºÎ', '', #138, .NOT_KNOWN. ) ;
#219 = DIRECTION ( 'NONE',  ( 0.0000000000000000000, 0.0000000000000000000, 1.000000000000000000 ) ) ;
#220 = DATE_AND_TIME ( #87, #232 ) ;
#221 = COORDINATED_UNIVERSAL_TIME_OFFSET ( 8, 0, .AHEAD. ) ;
#222 = DIRECTION ( 'NONE',  ( -0.0000000000000000000, -0.0000000000000000000, -1.000000000000000000 ) ) ;
#223 = APPROVAL ( #97, 'Î´Ö¸¶¨' ) ;
#224 = DIRECTION ( 'NONE',  ( -0.0000000000000000000, -0.0000000000000000000, -1.000000000000000000 ) ) ;
#225 = DIRECTION ( 'NONE',  ( 0.0000000000000000000, 0.0000000000000000000, 1.000000000000000000 ) ) ;
#226 = DIRECTION ( 'NONE',  ( 1.000000000000000000, 8.673617379884037900E-017, 0.0000000000000000000 ) ) ;
#227 = CARTESIAN_POINT ( 'NONE',  ( 0.0000000000000000000, 0.0000000000000000000, 0.0000000000000000000 ) ) ;
#228 = CC_DESIGN_PERSON_AND_ORGANIZATION_ASSIGNMENT ( #217, #127, ( #27 ) ) ;
#229 = APPLICATION_CONTEXT ( 'configuration controlled 3d designs of mechanical parts and assemblies' ) ;
#230 = VECTOR ( 'NONE', #190, 1000.000000000000000 ) ;
#231 = PERSON_AND_ORGANIZATION_ROLE ( 'design_supplier' ) ;
#232 = LOCAL_TIME ( 10, 13, 38.00000000000000000, #161 ) ;
#233 = SECURITY_CLASSIFICATION ( '', '', #346 ) ;
#234 = PERSON_AND_ORGANIZATION_ROLE ( 'creator' ) ;
#235 = AXIS2_PLACEMENT_3D ( 'NONE', #281, #225, #13 ) ;
#236 = LOCAL_TIME ( 10, 13, 38.00000000000000000, #101 ) ;
#237 = VECTOR ( 'NONE', #86, 1000.000000000000000 ) ;
#238 = EDGE_CURVE ( 'NONE', #333, #245, #9, .T. ) ;
#239 = APPROVAL ( #314, 'Î´Ö¸¶¨' ) ;
#240 = PERSON_AND_ORGANIZATION ( #279, #137 ) ;
#241 = CC_DESIGN_PERSON_AND_ORGANIZATION_ASSIGNMENT ( #48, #231, ( #205 ) ) ;
#242 = LINE ( 'NONE', #193, #188 ) ;
#243 = ORIENTED_EDGE ( 'NONE', *, *, #238, .F. ) ;
#244 = DIRECTION ( 'NONE',  ( 1.000000000000000000, 0.0000000000000000000, -0.0000000000000000000 ) ) ;
#245 = VERTEX_POINT ( 'NONE', #252 ) ;
#246 = SECURITY_CLASSIFICATION ( '', '', #265 ) ;
#247 = PLANE ( 'NONE',  #313 ) ;
#248 = PERSON_AND_ORGANIZATION ( #279, #137 ) ;
#249 = DATE_AND_TIME ( #43, #108 ) ;
#250 =( GEOMETRIC_REPRESENTATION_CONTEXT ( 3 ) GLOBAL_UNCERTAINTY_ASSIGNED_CONTEXT ( ( #285 ) ) GLOBAL_UNIT_ASSIGNED_CONTEXT ( ( #69, #122, #256 ) ) REPRESENTATION_CONTEXT ( 'NONE', 'WORKASPACE' ) );
#251 = ORIENTED_EDGE ( 'NONE', *, *, #111, .T. ) ;
#252 = CARTESIAN_POINT ( 'NONE',  ( -23.37922123258743300, -40.32306912721551800, 0.0000000000000000000 ) ) ;
#253 = APPROVAL_PERSON_ORGANIZATION ( #240, #78, #207 ) ;
#254 = CARTESIAN_POINT ( 'NONE',  ( 16.62476252515132200, 16.24712349419276000, 0.0000000000000000000 ) ) ;
#255 = FACE_OUTER_BOUND ( 'NONE', #106, .T. ) ;
#256 =( NAMED_UNIT ( * ) SI_UNIT ( $, .STERADIAN. ) SOLID_ANGLE_UNIT ( ) );
#257 = APPROVAL_PERSON_ORGANIZATION ( #276, #261, #171 ) ;
#258 = ORIENTED_EDGE ( 'NONE', *, *, #142, .F. ) ;
#259 = PERSON_AND_ORGANIZATION ( #279, #137 ) ;
#260 = EDGE_CURVE ( 'NONE', #11, #157, #89, .T. ) ;
#261 = APPROVAL ( #125, 'Î´Ö¸¶¨' ) ;
#262 = APPLICATION_CONTEXT ( 'configuration controlled 3d designs of mechanical parts and assemblies' ) ;
#263 = EDGE_CURVE ( 'NONE', #308, #103, #286, .T. ) ;
#264 = PERSON_AND_ORGANIZATION ( #279, #137 ) ;
#265 = SECURITY_CLASSIFICATION_LEVEL ( 'unclassified' ) ;
#266 = ORIENTED_EDGE ( 'NONE', *, *, #130, .F. ) ;
#267 = CC_DESIGN_PERSON_AND_ORGANIZATION_ASSIGNMENT ( #336, #71, ( #233 ) ) ;
#268 = PERSON_AND_ORGANIZATION_ROLE ( 'creator' ) ;
#269 = LINE ( 'NONE', #216, #274 ) ;
#270 = ORIENTED_EDGE ( 'NONE', *, *, #263, .T. ) ;
#271 = APPROVAL_DATE_TIME ( #129, #261 ) ;
#272 = CC_DESIGN_DATE_AND_TIME_ASSIGNMENT ( #131, #290, ( #246 ) ) ;
#273 = DATE_AND_TIME ( #53, #236 ) ;
#274 = VECTOR ( 'NONE', #301, 1000.000000000000100 ) ;
#275 = DIRECTION ( 'NONE',  ( 0.9238795325112878500, 0.3826834323650873400, 0.0000000000000000000 ) ) ;
#276 = PERSON_AND_ORGANIZATION ( #279, #137 ) ;
#277 = ORIENTED_EDGE ( 'NONE', *, *, #142, .T. ) ;
#278 = CARTESIAN_POINT ( 'NONE',  ( 16.62476252515132200, -23.75287650580724400, 40.00000000000000000 ) ) ;
#279 = PERSON ( 'Î´Ö¸¶¨', 'Î´Ö¸¶¨', 'Î´Ö¸¶¨', ('Î´Ö¸¶¨'), ('Î´Ö¸¶¨'), ('Î´Ö¸¶¨') ) ;
#280 = EDGE_CURVE ( 'NONE', #179, #308, #50, .T. ) ;
#281 = CARTESIAN_POINT ( 'NONE',  ( 0.0000000000000000000, 0.0000000000000000000, 40.00000000000000000 ) ) ;
#282 = PRODUCT_RELATED_PRODUCT_CATEGORY ( 'detail', '', ( #27 ) ) ;
#283 = CARTESIAN_POINT ( 'NONE',  ( 16.62476252515132200, -23.75287650580724400, 40.00000000000000000 ) ) ;
#284 = LINE ( 'NONE', #187, #128 ) ;
#285 = UNCERTAINTY_MEASURE_WITH_UNIT (LENGTH_MEASURE( 1.000000000000000100E-005 ), #69, 'distance_accuracy_value', 'NONE');
#286 = LINE ( 'NONE', #145, #3 ) ;
#287 = DIRECTION ( 'NONE',  ( -0.0000000000000000000, -0.0000000000000000000, -1.000000000000000000 ) ) ;
#288 = DIRECTION ( 'NONE',  ( -0.0000000000000000000, -0.0000000000000000000, -1.000000000000000000 ) ) ;
#289 = CC_DESIGN_PERSON_AND_ORGANIZATION_ASSIGNMENT ( #156, #268, ( #218 ) ) ;
#290 = DATE_TIME_ROLE ( 'classification_date' ) ;
#291 = MECHANICAL_CONTEXT ( 'NONE', #262, 'mechanical' ) ;
#292 = ORIENTED_EDGE ( 'NONE', *, *, #96, .F. ) ;
#293 = APPROVAL_STATUS ( 'not_yet_approved' ) ;
#294 = COORDINATED_UNIVERSAL_TIME_OFFSET ( 8, 0, .AHEAD. ) ;
#295 = APPROVAL_ROLE ( '' ) ;
#296 = PERSON_AND_ORGANIZATION ( #279, #137 ) ;
#297 = LOCAL_TIME ( 10, 13, 38.00000000000000000, #211 ) ;
#298 = LINE ( 'NONE', #306, #64 ) ;
#299 = PLANE ( 'NONE',  #172 ) ;
#300 = CC_DESIGN_APPROVAL ( #261, ( #246 ) ) ;
#301 = DIRECTION ( 'NONE',  ( 0.7071067811865455700, -0.7071067811865493500, -0.0000000000000000000 ) ) ;
#302 = LOCAL_TIME ( 10, 13, 38.00000000000000000, #312 ) ;
#303 = EDGE_LOOP ( 'NONE', ( #270, #158, #32, #83 ) ) ;
#304 = COORDINATED_UNIVERSAL_TIME_OFFSET ( 8, 0, .AHEAD. ) ;
#305 = FACE_OUTER_BOUND ( 'NONE', #317, .T. ) ;
#306 = CARTESIAN_POINT ( 'NONE',  ( -23.37523747484867400, 16.24712349419275600, 40.00000000000000000 ) ) ;
#307 = CARTESIAN_POINT ( 'NONE',  ( -23.37922123258743300, -40.32306912721551800, 40.00000000000000000 ) ) ;
#308 = VERTEX_POINT ( 'NONE', #254 ) ;
#309 = DIRECTION ( 'NONE',  ( -0.3826834323650873400, 0.9238795325112877400, 0.0000000000000000000 ) ) ;
#310 = CARTESIAN_POINT ( 'NONE',  ( -39.94543009625678600, -23.75686026354607700, 0.0000000000000000000 ) ) ;
#311 = EDGE_LOOP ( 'NONE', ( #251, #40, #168, #82 ) ) ;
#312 = COORDINATED_UNIVERSAL_TIME_OFFSET ( 8, 0, .AHEAD. ) ;
#313 = AXIS2_PLACEMENT_3D ( 'NONE', #191, #26, #113 ) ;
#314 = APPROVAL_STATUS ( 'not_yet_approved' ) ;
#315 = EDGE_CURVE ( 'NONE', #103, #157, #242, .T. ) ;
#316 = DATE_TIME_ROLE ( 'creation_date' ) ;
#317 = EDGE_LOOP ( 'NONE', ( #51, #348, #73, #277, #6 ) ) ;
#318 = APPLICATION_PROTOCOL_DEFINITION ( 'international standard', 'config_control_design', 1994, #229 ) ;
#319 = CALENDAR_DATE ( 2019, 24, 7 ) ;
#320 = CALENDAR_DATE ( 2019, 24, 7 ) ;
#321 = VERTEX_POINT ( 'NONE', #14 ) ;
#322 = CC_DESIGN_DATE_AND_TIME_ASSIGNMENT ( #61, #316, ( #20 ) ) ;
#323 = APPROVAL_DATE_TIME ( #220, #239 ) ;
#324 = LOCAL_TIME ( 10, 13, 38.00000000000000000, #304 ) ;
#325 = DATE_AND_TIME ( #58, #324 ) ;
#326 = LINE ( 'NONE', #278, #208 ) ;
#327 = CARTESIAN_POINT ( 'NONE',  ( -39.94543009625678600, -23.75686026354607700, 40.00000000000000000 ) ) ;
#328 = VERTEX_POINT ( 'NONE', #60 ) ;
#329 = CARTESIAN_POINT ( 'NONE',  ( 16.62476252515132200, 16.24712349419276000, 40.00000000000000000 ) ) ;
#330 = AXIS2_PLACEMENT_3D ( 'NONE', #167, #29, #226 ) ;
#331 = DIRECTION ( 'NONE',  ( -1.000000000000000000, 0.0000000000000000000, 0.0000000000000000000 ) ) ;
#332 = ORIENTED_EDGE ( 'NONE', *, *, #260, .F. ) ;
#333 = VERTEX_POINT ( 'NONE', #92 ) ;
#334 = CARTESIAN_POINT ( 'NONE',  ( 0.0000000000000000000, 0.0000000000000000000, 0.0000000000000000000 ) ) ;
#335 = PERSON_AND_ORGANIZATION ( #279, #137 ) ;
#336 = PERSON_AND_ORGANIZATION ( #279, #137 ) ;
#337 = PLANE ( 'NONE',  #330 ) ;
#338 = CARTESIAN_POINT ( 'NONE',  ( 16.62476252515132200, -23.75287650580724400, 0.0000000000000000000 ) ) ;
#339 = DIRECTION ( 'NONE',  ( -0.3826834323650832900, -0.9238795325112894000, 0.0000000000000000000 ) ) ;
#340 = VERTEX_POINT ( 'NONE', #36 ) ;
#341 = PRODUCT_DEFINITION ( 'Î´Öª', '', #205, #81 ) ;
#342 = PERSON_AND_ORGANIZATION_ROLE ( 'design_supplier' ) ;
#343 = CC_DESIGN_APPROVAL ( #223, ( #205 ) ) ;
#344 = LINE ( 'NONE', #85, #237 ) ;
#345 = CALENDAR_DATE ( 2019, 24, 7 ) ;
#346 = SECURITY_CLASSIFICATION_LEVEL ( 'unclassified' ) ;
#347 = FACE_OUTER_BOUND ( 'NONE', #303, .T. ) ;
#348 = ORIENTED_EDGE ( 'NONE', *, *, #94, .T. ) ;
ENDSEC;
END-ISO-10303-21;
