ISO-10303-21;
HEADER;
FILE_DESCRIPTION (( 'STEP AP203' ),
    '1' );
FILE_NAME ('373534.STEP',
    '2019-07-24T09:22:27',
    ( '' ),
    ( '' ),
    'SwSTEP 2.0',
    'SolidWorks 2016',
    '' );
FILE_SCHEMA (( 'CONFIG_CONTROL_DESIGN' ));
ENDSEC;

DATA;
#1 = EDGE_CURVE ( 'NONE', #157, #197, #117, .T. ) ;
#2 = ADVANCED_FACE ( 'NONE', ( #81 ), #65, .F. ) ;
#3 = FACE_OUTER_BOUND ( 'NONE', #67, .T. ) ;
#4 = DIRECTION ( 'NONE',  ( -0.0000000000000000000, -0.0000000000000000000, -1.000000000000000000 ) ) ;
#5 = CC_DESIGN_PERSON_AND_ORGANIZATION_ASSIGNMENT ( #109, #129, ( #47 ) ) ;
#6 = DIRECTION ( 'NONE',  ( 0.0000000000000000000, 0.0000000000000000000, 1.000000000000000000 ) ) ;
#7 = PERSON_AND_ORGANIZATION ( #176, #85 ) ;
#8 = CARTESIAN_POINT ( 'NONE',  ( 0.0000000000000000000, 0.0000000000000000000, 0.0000000000000000000 ) ) ;
#9 = PERSON_AND_ORGANIZATION_ROLE ( 'classification_officer' ) ;
#10 = CC_DESIGN_PERSON_AND_ORGANIZATION_ASSIGNMENT ( #35, #171, ( #212 ) ) ;
#11 = FACE_OUTER_BOUND ( 'NONE', #236, .T. ) ;
#12 = CIRCLE ( 'NONE', #228, 12.49999999999999600 ) ;
#13 = LOCAL_TIME ( 17, 22, 27.00000000000000000, #134 ) ;
#14 = COORDINATED_UNIVERSAL_TIME_OFFSET ( 8, 0, .AHEAD. ) ;
#15 = APPROVAL ( #31, 'Î´Ö¸¶¨' ) ;
#16 = FACE_OUTER_BOUND ( 'NONE', #63, .T. ) ;
#17 = LOCAL_TIME ( 17, 22, 27.00000000000000000, #198 ) ;
#18 =( BOUNDED_CURVE ( )  B_SPLINE_CURVE ( 3, ( #245, #43, #183, #87 ),
 .UNSPECIFIED., .F., .F. ) 
 B_SPLINE_CURVE_WITH_KNOTS ( ( 4, 4 ),
 ( 3.141592653589793100, 6.283185307179586200 ),
 .UNSPECIFIED. ) 
 CURVE ( )  GEOMETRIC_REPRESENTATION_ITEM ( )  RATIONAL_B_SPLINE_CURVE ( ( 1.000000000000000000, 0.3333333333333333700, 0.3333333333333333700, 1.000000000000000000 ) ) 
 REPRESENTATION_ITEM ( '' )  );
#19 = EDGE_CURVE ( 'NONE', #99, #197, #12, .T. ) ;
#20 = DIRECTION ( 'NONE',  ( 0.0000000000000000000, 0.0000000000000000000, 1.000000000000000000 ) ) ;
#21 = LOCAL_TIME ( 17, 22, 27.00000000000000000, #233 ) ;
#22 = CC_DESIGN_DATE_AND_TIME_ASSIGNMENT ( #201, #51, ( #212 ) ) ;
#23 = DIRECTION ( 'NONE',  ( -0.1442525773113260700, 0.0000000000000000000, -0.9895409005892783500 ) ) ;
#24 = CARTESIAN_POINT ( 'NONE',  ( 0.0000000000000000000, 0.0000000000000000000, 0.0000000000000000000 ) ) ;
#25 = PERSON_AND_ORGANIZATION_ROLE ( 'design_owner' ) ;
#26 = PERSON_AND_ORGANIZATION ( #176, #85 ) ;
#27 = PERSON_AND_ORGANIZATION_ROLE ( 'creator' ) ;
#28 = APPROVAL ( #169, 'Î´Ö¸¶¨' ) ;
#29 = APPLICATION_CONTEXT ( 'configuration controlled 3d designs of mechanical parts and assemblies' ) ;
#30 = APPROVAL ( #246, 'Î´Ö¸¶¨' ) ;
#31 = APPROVAL_STATUS ( 'not_yet_approved' ) ;
#32 = CALENDAR_DATE ( 2019, 24, 7 ) ;
#33 = CC_DESIGN_APPROVAL ( #15, ( #207 ) ) ;
#34 = ORIENTED_EDGE ( 'NONE', *, *, #215, .F. ) ;
#35 = PERSON_AND_ORGANIZATION ( #176, #85 ) ;
#36 = SHAPE_DEFINITION_REPRESENTATION ( #121, #40 ) ;
#37 = DATE_AND_TIME ( #196, #21 ) ;
#38 = ORIENTED_EDGE ( 'NONE', *, *, #19, .T. ) ;
#39 = PERSON_AND_ORGANIZATION ( #176, #85 ) ;
#40 = ADVANCED_BREP_SHAPE_REPRESENTATION ( '373534', ( #71, #167 ), #251 ) ;
#41 = ORIENTED_EDGE ( 'NONE', *, *, #101, .T. ) ;
#42 = LOCAL_TIME ( 17, 22, 27.00000000000000000, #209 ) ;
#43 = CARTESIAN_POINT ( 'NONE',  ( -12.50000000000000000, 24.99999999999998900, 6.644431908408805000 ) ) ;
#44 = DIRECTION ( 'NONE',  ( -0.0000000000000000000, -0.0000000000000000000, -1.000000000000000000 ) ) ;
#45 = CC_DESIGN_PERSON_AND_ORGANIZATION_ASSIGNMENT ( #161, #211, ( #179 ) ) ;
#46 = DIRECTION ( 'NONE',  ( -1.000000000000000000, 0.0000000000000000000, 0.0000000000000000000 ) ) ;
#47 = PRODUCT_DEFINITION_FORMATION_WITH_SPECIFIED_SOURCE ( 'ÈÎºÎ', '', #160, .NOT_KNOWN. ) ;
#48 = SECURITY_CLASSIFICATION ( '', '', #194 ) ;
#49 = DATE_TIME_ROLE ( 'creation_date' ) ;
#50 = PERSON_AND_ORGANIZATION_ROLE ( 'classification_officer' ) ;
#51 = DATE_TIME_ROLE ( 'creation_date' ) ;
#52 = CALENDAR_DATE ( 2019, 24, 7 ) ;
#53 = DESIGN_CONTEXT ( 'detailed design', #224, 'design' ) ;
#54 = APPROVAL_ROLE ( '' ) ;
#55 = CLOSED_SHELL ( 'NONE', ( #187, #88, #2, #124 ) ) ;
#56 = APPROVAL_PERSON_ORGANIZATION ( #60, #152, #155 ) ;
#57 = SECURITY_CLASSIFICATION ( '', '', #110 ) ;
#58 = UNCERTAINTY_MEASURE_WITH_UNIT (LENGTH_MEASURE( 1.000000000000000100E-005 ), #128, 'distance_accuracy_value', 'NONE');
#59 = CYLINDRICAL_SURFACE ( 'NONE', #116, 12.49999999999999600 ) ;
#60 = PERSON_AND_ORGANIZATION ( #176, #85 ) ;
#61 = DIRECTION ( 'NONE',  ( 0.0000000000000000000, 0.0000000000000000000, 1.000000000000000000 ) ) ;
#62 = AXIS2_PLACEMENT_3D ( 'NONE', #188, #105, #219 ) ;
#63 = EDGE_LOOP ( 'NONE', ( #243, #178 ) ) ;
#64 = CARTESIAN_POINT ( 'NONE',  ( 0.0000000000000000000, 0.0000000000000000000, 10.00000000000000000 ) ) ;
#65 = PLANE ( 'NONE',  #62 ) ;
#66 = APPROVAL_ROLE ( '' ) ;
#67 = EDGE_LOOP ( 'NONE', ( #41, #153, #168, #174 ) ) ;
#68 = COORDINATED_UNIVERSAL_TIME_OFFSET ( 8, 0, .AHEAD. ) ;
#69 = DIRECTION ( 'NONE',  ( 1.000000000000000000, 0.0000000000000000000, 0.0000000000000000000 ) ) ;
#70 = AXIS2_PLACEMENT_3D ( 'NONE', #8, #6, #69 ) ;
#71 = MANIFOLD_SOLID_BREP ( 'ÇÐ³ý-À­Éì1', #55 ) ;
#72 = DATE_TIME_ROLE ( 'classification_date' ) ;
#73 = APPROVAL_ROLE ( '' ) ;
#74 = PERSON_AND_ORGANIZATION ( #176, #85 ) ;
#75 = DATE_AND_TIME ( #253, #13 ) ;
#76 = LINE ( 'NONE', #165, #126 ) ;
#77 = PERSON_AND_ORGANIZATION ( #176, #85 ) ;
#78 = APPROVAL_DATE_TIME ( #94, #152 ) ;
#79 = PRODUCT_RELATED_PRODUCT_CATEGORY ( 'detail', '', ( #160 ) ) ;
#80 = LOCAL_TIME ( 17, 22, 27.00000000000000000, #235 ) ;
#81 = FACE_OUTER_BOUND ( 'NONE', #204, .T. ) ;
#82 = LOCAL_TIME ( 17, 22, 27.00000000000000000, #115 ) ;
#83 = CC_DESIGN_APPROVAL ( #28, ( #179 ) ) ;
#84 = CC_DESIGN_APPROVAL ( #152, ( #48 ) ) ;
#85 = ORGANIZATION ( 'Î´Ö¸¶¨', 'Î´Ö¸¶¨', '' ) ;
#86 = CALENDAR_DATE ( 2019, 24, 7 ) ;
#87 = CARTESIAN_POINT ( 'NONE',  ( 12.49999999999999600, 1.530808498934191100E-015, 3.000000000000000000 ) ) ;
#88 = ADVANCED_FACE ( 'NONE', ( #11 ), #59, .T. ) ;
#89 = CARTESIAN_POINT ( 'NONE',  ( -12.49999999999999600, 0.0000000000000000000, 0.0000000000000000000 ) ) ;
#90 = APPROVAL ( #210, 'Î´Ö¸¶¨' ) ;
#91 = PERSON_AND_ORGANIZATION ( #176, #85 ) ;
#92 = PERSON_AND_ORGANIZATION_ROLE ( 'design_owner' ) ;
#93 = MECHANICAL_CONTEXT ( 'NONE', #149, 'mechanical' ) ;
#94 = DATE_AND_TIME ( #52, #42 ) ;
#95 =( NAMED_UNIT ( * ) SI_UNIT ( $, .STERADIAN. ) SOLID_ANGLE_UNIT ( ) );
#96 = DIRECTION ( 'NONE',  ( 0.0000000000000000000, 0.0000000000000000000, 1.000000000000000000 ) ) ;
#97 = CALENDAR_DATE ( 2019, 24, 7 ) ;
#98 = CC_DESIGN_SECURITY_CLASSIFICATION ( #57, ( #179 ) ) ;
#99 = VERTEX_POINT ( 'NONE', #89 ) ;
#100 = APPROVAL_DATE_TIME ( #127, #141 ) ;
#101 = EDGE_CURVE ( 'NONE', #139, #157, #18, .T. ) ;
#102 = PRODUCT ( '373534', '373534', '', ( #93 ) ) ;
#103 = CC_DESIGN_APPROVAL ( #90, ( #57 ) ) ;
#104 = APPROVAL_DATE_TIME ( #75, #90 ) ;
#105 = DIRECTION ( 'NONE',  ( 0.0000000000000000000, 0.0000000000000000000, 1.000000000000000000 ) ) ;
#106 = DESIGN_CONTEXT ( 'detailed design', #227, 'design' ) ;
#107 = APPROVAL_STATUS ( 'not_yet_approved' ) ;
#108 = CC_DESIGN_PERSON_AND_ORGANIZATION_ASSIGNMENT ( #39, #191, ( #179 ) ) ;
#109 = PERSON_AND_ORGANIZATION ( #176, #85 ) ;
#110 = SECURITY_CLASSIFICATION_LEVEL ( 'unclassified' ) ;
#111 = APPROVAL_ROLE ( '' ) ;
#112 = DIRECTION ( 'NONE',  ( 1.000000000000000000, 0.0000000000000000000, 0.0000000000000000000 ) ) ;
#113 = CC_DESIGN_PERSON_AND_ORGANIZATION_ASSIGNMENT ( #26, #50, ( #57 ) ) ;
#114 = CIRCLE ( 'NONE', #70, 12.49999999999999600 ) ;
#115 = COORDINATED_UNIVERSAL_TIME_OFFSET ( 8, 0, .AHEAD. ) ;
#116 = AXIS2_PLACEMENT_3D ( 'NONE', #122, #44, #164 ) ;
#117 = LINE ( 'NONE', #125, #232 ) ;
#118 = ORIENTED_EDGE ( 'NONE', *, *, #184, .T. ) ;
#119 = PERSON_AND_ORGANIZATION ( #176, #85 ) ;
#120 = LOCAL_TIME ( 17, 22, 27.00000000000000000, #214 ) ;
#121 = PRODUCT_DEFINITION_SHAPE ( 'NONE', 'NONE',  #212 ) ;
#122 = CARTESIAN_POINT ( 'NONE',  ( 0.0000000000000000000, 0.0000000000000000000, 10.00000000000000000 ) ) ;
#123 = CC_DESIGN_DATE_AND_TIME_ASSIGNMENT ( #230, #49, ( #207 ) ) ;
#124 = ADVANCED_FACE ( 'NONE', ( #16 ), #241, .F. ) ;
#125 = CARTESIAN_POINT ( 'NONE',  ( 12.49999999999999600, 1.530808498934191100E-015, 10.00000000000000000 ) ) ;
#126 = VECTOR ( 'NONE', #203, 1000.000000000000000 ) ;
#127 = DATE_AND_TIME ( #237, #82 ) ;
#128 =( LENGTH_UNIT ( ) NAMED_UNIT ( * ) SI_UNIT ( .MILLI., .METRE. ) );
#129 = PERSON_AND_ORGANIZATION_ROLE ( 'design_supplier' ) ;
#130 = MECHANICAL_CONTEXT ( 'NONE', #29, 'mechanical' ) ;
#131 = PERSON_AND_ORGANIZATION_ROLE ( 'creator' ) ;
#132 = COORDINATED_UNIVERSAL_TIME_OFFSET ( 8, 0, .AHEAD. ) ;
#133 = PRODUCT_DEFINITION_SHAPE ( 'NONE', 'NONE',  #207 ) ;
#134 = COORDINATED_UNIVERSAL_TIME_OFFSET ( 8, 0, .AHEAD. ) ;
#135 = CC_DESIGN_PERSON_AND_ORGANIZATION_ASSIGNMENT ( #199, #27, ( #207 ) ) ;
#136 = PERSON_AND_ORGANIZATION ( #176, #85 ) ;
#137 = CALENDAR_DATE ( 2019, 24, 7 ) ;
#138 = CC_DESIGN_DATE_AND_TIME_ASSIGNMENT ( #37, #247, ( #57 ) ) ;
#139 = VERTEX_POINT ( 'NONE', #205 ) ;
#140 = APPROVAL_PERSON_ORGANIZATION ( #91, #141, #66 ) ;
#141 = APPROVAL ( #107, 'Î´Ö¸¶¨' ) ;
#142 = CC_DESIGN_PERSON_AND_ORGANIZATION_ASSIGNMENT ( #119, #9, ( #48 ) ) ;
#143 = CARTESIAN_POINT ( 'NONE',  ( -12.49999999999999500, -24.99999999999998900, 6.644431908408803300 ) ) ;
#144 = APPROVAL_DATE_TIME ( #175, #28 ) ;
#145 = EDGE_CURVE ( 'NONE', #157, #139, #193, .T. ) ;
#146 = CARTESIAN_POINT ( 'NONE',  ( 12.49999999999999600, -25.00000000000000000, 3.000000000000000000 ) ) ;
#147 = DIRECTION ( 'NONE',  ( -0.9895409005892783500, 0.0000000000000000000, 0.1442525773113260700 ) ) ;
#148 = APPROVAL_PERSON_ORGANIZATION ( #154, #28, #172 ) ;
#149 = APPLICATION_CONTEXT ( 'configuration controlled 3d designs of mechanical parts and assemblies' ) ;
#150 = APPLICATION_PROTOCOL_DEFINITION ( 'international standard', 'config_control_design', 1994, #227 ) ;
#151 = PRODUCT_RELATED_PRODUCT_CATEGORY ( 'detail', '', ( #102 ) ) ;
#152 = APPROVAL ( #156, 'Î´Ö¸¶¨' ) ;
#153 = ORIENTED_EDGE ( 'NONE', *, *, #1, .T. ) ;
#154 = PERSON_AND_ORGANIZATION ( #176, #85 ) ;
#155 = APPROVAL_ROLE ( '' ) ;
#156 = APPROVAL_STATUS ( 'not_yet_approved' ) ;
#157 = VERTEX_POINT ( 'NONE', #222 ) ;
#158 = APPROVAL_PERSON_ORGANIZATION ( #136, #15, #111 ) ;
#159 = AXIS2_PLACEMENT_3D ( 'NONE', #231, #96, #112 ) ;
#160 = PRODUCT ( '373534', '373534', '', ( #130 ) ) ;
#161 = PERSON_AND_ORGANIZATION ( #176, #85 ) ;
#162 = CC_DESIGN_PERSON_AND_ORGANIZATION_ASSIGNMENT ( #238, #92, ( #160 ) ) ;
#163 = CC_DESIGN_APPROVAL ( #30, ( #212 ) ) ;
#164 = DIRECTION ( 'NONE',  ( -1.000000000000000000, 0.0000000000000000000, 0.0000000000000000000 ) ) ;
#165 = CARTESIAN_POINT ( 'NONE',  ( -12.49999999999999600, 0.0000000000000000000, 10.00000000000000000 ) ) ;
#166 = CARTESIAN_POINT ( 'NONE',  ( 12.49999999999999600, 1.530808498934191100E-015, 0.0000000000000000000 ) ) ;
#167 = AXIS2_PLACEMENT_3D ( 'NONE', #24, #61, #195 ) ;
#168 = ORIENTED_EDGE ( 'NONE', *, *, #215, .T. ) ;
#169 = APPROVAL_STATUS ( 'not_yet_approved' ) ;
#170 = DATE_AND_TIME ( #137, #218 ) ;
#171 = PERSON_AND_ORGANIZATION_ROLE ( 'creator' ) ;
#172 = APPROVAL_ROLE ( '' ) ;
#173 = AXIS2_PLACEMENT_3D ( 'NONE', #146, #23, #147 ) ;
#174 = ORIENTED_EDGE ( 'NONE', *, *, #184, .F. ) ;
#175 = DATE_AND_TIME ( #97, #80 ) ;
#176 = PERSON ( 'Î´Ö¸¶¨', 'Î´Ö¸¶¨', 'Î´Ö¸¶¨', ('Î´Ö¸¶¨'), ('Î´Ö¸¶¨'), ('Î´Ö¸¶¨') ) ;
#177 = PERSON_AND_ORGANIZATION ( #176, #85 ) ;
#178 = ORIENTED_EDGE ( 'NONE', *, *, #145, .F. ) ;
#179 = PRODUCT_DEFINITION_FORMATION_WITH_SPECIFIED_SOURCE ( 'ÈÎºÎ', '', #102, .NOT_KNOWN. ) ;
#180 = CALENDAR_DATE ( 2019, 24, 7 ) ;
#181 = DIRECTION ( 'NONE',  ( 1.000000000000000000, 0.0000000000000000000, 0.0000000000000000000 ) ) ;
#182 = APPROVAL_DATE_TIME ( #200, #15 ) ;
#183 = CARTESIAN_POINT ( 'NONE',  ( 12.49999999999999500, 24.99999999999998900, 3.000000000000000900 ) ) ;
#184 = EDGE_CURVE ( 'NONE', #139, #99, #76, .T. ) ;
#185 = CC_DESIGN_SECURITY_CLASSIFICATION ( #48, ( #47 ) ) ;
#186 = CARTESIAN_POINT ( 'NONE',  ( 12.49999999999999600, 1.530808498934191100E-015, 3.000000000000000000 ) ) ;
#187 = ADVANCED_FACE ( 'NONE', ( #3 ), #216, .T. ) ;
#188 = CARTESIAN_POINT ( 'NONE',  ( 0.0000000000000000000, 0.0000000000000000000, 0.0000000000000000000 ) ) ;
#189 = ORIENTED_EDGE ( 'NONE', *, *, #145, .T. ) ;
#190 = APPROVAL_PERSON_ORGANIZATION ( #177, #90, #73 ) ;
#191 = PERSON_AND_ORGANIZATION_ROLE ( 'creator' ) ;
#192 = APPLICATION_PROTOCOL_DEFINITION ( 'international standard', 'config_control_design', 1994, #29 ) ;
#193 =( BOUNDED_CURVE ( )  B_SPLINE_CURVE ( 3, ( #186, #242, #143, #202 ),
 .UNSPECIFIED., .F., .T. ) 
 B_SPLINE_CURVE_WITH_KNOTS ( ( 4, 4 ),
 ( 0.0000000000000000000, 3.141592653589793100 ),
 .UNSPECIFIED. ) 
 CURVE ( )  GEOMETRIC_REPRESENTATION_ITEM ( )  RATIONAL_B_SPLINE_CURVE ( ( 1.000000000000000000, 0.3333333333333333700, 0.3333333333333333700, 1.000000000000000000 ) ) 
 REPRESENTATION_ITEM ( '' )  );
#194 = SECURITY_CLASSIFICATION_LEVEL ( 'unclassified' ) ;
#195 = DIRECTION ( 'NONE',  ( 1.000000000000000000, 0.0000000000000000000, 0.0000000000000000000 ) ) ;
#196 = CALENDAR_DATE ( 2019, 24, 7 ) ;
#197 = VERTEX_POINT ( 'NONE', #166 ) ;
#198 = COORDINATED_UNIVERSAL_TIME_OFFSET ( 8, 0, .AHEAD. ) ;
#199 = PERSON_AND_ORGANIZATION ( #176, #85 ) ;
#200 = DATE_AND_TIME ( #32, #120 ) ;
#201 = DATE_AND_TIME ( #248, #17 ) ;
#202 = CARTESIAN_POINT ( 'NONE',  ( -12.49999999999999600, 0.0000000000000000000, 6.644431908408805000 ) ) ;
#203 = DIRECTION ( 'NONE',  ( -0.0000000000000000000, -0.0000000000000000000, -1.000000000000000000 ) ) ;
#204 = EDGE_LOOP ( 'NONE', ( #213, #34 ) ) ;
#205 = CARTESIAN_POINT ( 'NONE',  ( -12.49999999999999600, 0.0000000000000000000, 6.644431908408805000 ) ) ;
#206 =( NAMED_UNIT ( * ) PLANE_ANGLE_UNIT ( ) SI_UNIT ( $, .RADIAN. ) );
#207 = PRODUCT_DEFINITION ( 'Î´Öª', '', #179, #106 ) ;
#208 = ORIENTED_EDGE ( 'NONE', *, *, #1, .F. ) ;
#209 = COORDINATED_UNIVERSAL_TIME_OFFSET ( 8, 0, .AHEAD. ) ;
#210 = APPROVAL_STATUS ( 'not_yet_approved' ) ;
#211 = PERSON_AND_ORGANIZATION_ROLE ( 'design_supplier' ) ;
#212 = PRODUCT_DEFINITION ( 'Î´Öª', '', #47, #53 ) ;
#213 = ORIENTED_EDGE ( 'NONE', *, *, #19, .F. ) ;
#214 = COORDINATED_UNIVERSAL_TIME_OFFSET ( 8, 0, .AHEAD. ) ;
#215 = EDGE_CURVE ( 'NONE', #197, #99, #114, .T. ) ;
#216 = CYLINDRICAL_SURFACE ( 'NONE', #234, 12.49999999999999600 ) ;
#217 = CC_DESIGN_APPROVAL ( #141, ( #47 ) ) ;
#218 = LOCAL_TIME ( 17, 22, 27.00000000000000000, #68 ) ;
#219 = DIRECTION ( 'NONE',  ( 1.000000000000000000, 0.0000000000000000000, -0.0000000000000000000 ) ) ;
#220 = CC_DESIGN_PERSON_AND_ORGANIZATION_ASSIGNMENT ( #74, #25, ( #102 ) ) ;
#221 = DATE_AND_TIME ( #180, #250 ) ;
#222 = CARTESIAN_POINT ( 'NONE',  ( 12.49999999999999600, 1.530808498934191100E-015, 3.000000000000000000 ) ) ;
#223 = CARTESIAN_POINT ( 'NONE',  ( 0.0000000000000000000, 0.0000000000000000000, 0.0000000000000000000 ) ) ;
#224 = APPLICATION_CONTEXT ( 'configuration controlled 3d designs of mechanical parts and assemblies' ) ;
#225 = APPROVAL_PERSON_ORGANIZATION ( #7, #30, #54 ) ;
#226 = APPLICATION_PROTOCOL_DEFINITION ( 'international standard', 'config_control_design', 1994, #224 ) ;
#227 = APPLICATION_CONTEXT ( 'configuration controlled 3d designs of mechanical parts and assemblies' ) ;
#228 = AXIS2_PLACEMENT_3D ( 'NONE', #223, #20, #181 ) ;
#229 = CC_DESIGN_DATE_AND_TIME_ASSIGNMENT ( #170, #72, ( #48 ) ) ;
#230 = DATE_AND_TIME ( #86, #239 ) ;
#231 = CARTESIAN_POINT ( 'NONE',  ( 0.0000000000000000000, 0.0000000000000000000, 0.0000000000000000000 ) ) ;
#232 = VECTOR ( 'NONE', #240, 1000.000000000000000 ) ;
#233 = COORDINATED_UNIVERSAL_TIME_OFFSET ( 8, 0, .AHEAD. ) ;
#234 = AXIS2_PLACEMENT_3D ( 'NONE', #64, #4, #46 ) ;
#235 = COORDINATED_UNIVERSAL_TIME_OFFSET ( 8, 0, .AHEAD. ) ;
#236 = EDGE_LOOP ( 'NONE', ( #208, #189, #118, #38 ) ) ;
#237 = CALENDAR_DATE ( 2019, 24, 7 ) ;
#238 = PERSON_AND_ORGANIZATION ( #176, #85 ) ;
#239 = LOCAL_TIME ( 17, 22, 27.00000000000000000, #132 ) ;
#240 = DIRECTION ( 'NONE',  ( -0.0000000000000000000, -0.0000000000000000000, -1.000000000000000000 ) ) ;
#241 = PLANE ( 'NONE',  #173 ) ;
#242 = CARTESIAN_POINT ( 'NONE',  ( 12.49999999999999500, -24.99999999999998900, 3.000000000000000900 ) ) ;
#243 = ORIENTED_EDGE ( 'NONE', *, *, #101, .F. ) ;
#244 = APPROVAL_DATE_TIME ( #221, #30 ) ;
#245 = CARTESIAN_POINT ( 'NONE',  ( -12.49999999999999600, 0.0000000000000000000, 6.644431908408805000 ) ) ;
#246 = APPROVAL_STATUS ( 'not_yet_approved' ) ;
#247 = DATE_TIME_ROLE ( 'classification_date' ) ;
#248 = CALENDAR_DATE ( 2019, 24, 7 ) ;
#249 = APPLICATION_PROTOCOL_DEFINITION ( 'international standard', 'config_control_design', 1994, #149 ) ;
#250 = LOCAL_TIME ( 17, 22, 27.00000000000000000, #14 ) ;
#251 =( GEOMETRIC_REPRESENTATION_CONTEXT ( 3 ) GLOBAL_UNCERTAINTY_ASSIGNED_CONTEXT ( ( #58 ) ) GLOBAL_UNIT_ASSIGNED_CONTEXT ( ( #128, #206, #95 ) ) REPRESENTATION_CONTEXT ( 'NONE', 'WORKASPACE' ) );
#252 = CC_DESIGN_PERSON_AND_ORGANIZATION_ASSIGNMENT ( #77, #131, ( #47 ) ) ;
#253 = CALENDAR_DATE ( 2019, 24, 7 ) ;
ENDSEC;
END-ISO-10303-21;
