ISO-10303-21;
HEADER;
FILE_DESCRIPTION (( 'STEP AP214' ),
    '1' );
FILE_NAME ('190114.STEP',
    '2019-07-17T02:11:27',
    ( 'user' ),
    ( 'Î¢ÈíÖÐ¹ú' ),
    'SwSTEP 2.0',
    'SolidWorks 2016',
    '' );
FILE_SCHEMA (( 'AUTOMOTIVE_DESIGN' ));
ENDSEC;

DATA;
#1 = CARTESIAN_POINT ( 'NONE',  ( 0.0000000000000000000, 0.0000000000000000000, 1.000000000000000000 ) ) ;
#2 = ORIENTED_EDGE ( 'NONE', *, *, #92, .T. ) ;
#3 = UNCERTAINTY_MEASURE_WITH_UNIT (LENGTH_MEASURE( 1.000000000000000100E-005 ), #94, 'distance_accuracy_value', 'NONE');
#4 = LINE ( 'NONE', #47, #9 ) ;
#5 = PRODUCT_DEFINITION ( 'Î´Öª', '', #12, #77 ) ;
#6 = CLOSED_SHELL ( 'NONE', ( #74, #104, #66, #88 ) ) ;
#7 = CYLINDRICAL_SURFACE ( 'NONE', #59, 5.000000000000000000 ) ;
#8 = CARTESIAN_POINT ( 'NONE',  ( 0.0000000000000000000, 0.0000000000000000000, 1.000000000000000000 ) ) ;
#9 = VECTOR ( 'NONE', #57, 1000.000000000000000 ) ;
#10 = VERTEX_POINT ( 'NONE', #111 ) ;
#11 = PRESENTATION_STYLE_ASSIGNMENT (( #121 ) ) ;
#12 = PRODUCT_DEFINITION_FORMATION_WITH_SPECIFIED_SOURCE ( 'ÈÎºÎ', '', #95, .NOT_KNOWN. ) ;
#13 = CIRCLE ( 'NONE', #51, 5.000000000000000000 ) ;
#14 = ADVANCED_BREP_SHAPE_REPRESENTATION ( '190114', ( #64, #136 ), #73 ) ;
#15 = CARTESIAN_POINT ( 'NONE',  ( 0.0000000000000000000, 0.0000000000000000000, 1.000000000000000000 ) ) ;
#16 = CARTESIAN_POINT ( 'NONE',  ( -5.000000000000000000, 0.0000000000000000000, 1.000000000000000000 ) ) ;
#17 = PRODUCT_RELATED_PRODUCT_CATEGORY ( 'part', '', ( #95 ) ) ;
#18 = DIRECTION ( 'NONE',  ( -0.0000000000000000000, -0.0000000000000000000, -1.000000000000000000 ) ) ;
#19 = FILL_AREA_STYLE_COLOUR ( '', #109 ) ;
#20 = CARTESIAN_POINT ( 'NONE',  ( -5.000000000000000000, 0.0000000000000000000, 1.000000000000000000 ) ) ;
#21 = FACE_OUTER_BOUND ( 'NONE', #82, .T. ) ;
#22 = DIRECTION ( 'NONE',  ( -1.000000000000000000, 0.0000000000000000000, 0.0000000000000000000 ) ) ;
#23 = AXIS2_PLACEMENT_3D ( 'NONE', #78, #101, #54 ) ;
#24 = PRODUCT_DEFINITION_SHAPE ( 'NONE', 'NONE',  #5 ) ;
#25 = DIRECTION ( 'NONE',  ( 1.000000000000000000, 0.0000000000000000000, -0.0000000000000000000 ) ) ;
#26 = PLANE ( 'NONE',  #27 ) ;
#27 = AXIS2_PLACEMENT_3D ( 'NONE', #105, #38, #25 ) ;
#28 = ORIENTED_EDGE ( 'NONE', *, *, #55, .T. ) ;
#29 = DIRECTION ( 'NONE',  ( 0.0000000000000000000, 0.0000000000000000000, 1.000000000000000000 ) ) ;
#30 = ORIENTED_EDGE ( 'NONE', *, *, #70, .T. ) ;
#31 = CYLINDRICAL_SURFACE ( 'NONE', #131, 5.000000000000000000 ) ;
#32 = VERTEX_POINT ( 'NONE', #89 ) ;
#33 = PRESENTATION_LAYER_ASSIGNMENT (  '', '', ( #48 ) ) ;
#34 = DIRECTION ( 'NONE',  ( 1.000000000000000000, 0.0000000000000000000, 0.0000000000000000000 ) ) ;
#35 = CARTESIAN_POINT ( 'NONE',  ( 0.0000000000000000000, 0.0000000000000000000, 1.000000000000000000 ) ) ;
#36 = PRODUCT_CONTEXT ( 'NONE', #135, 'mechanical' ) ;
#37 =( NAMED_UNIT ( * ) PLANE_ANGLE_UNIT ( ) SI_UNIT ( $, .RADIAN. ) );
#38 = DIRECTION ( 'NONE',  ( 0.0000000000000000000, 0.0000000000000000000, 1.000000000000000000 ) ) ;
#39 = DIRECTION ( 'NONE',  ( -0.0000000000000000000, -0.0000000000000000000, -1.000000000000000000 ) ) ;
#40 = MECHANICAL_DESIGN_GEOMETRIC_PRESENTATION_REPRESENTATION (  '', ( #48 ), #110 ) ;
#41 = UNCERTAINTY_MEASURE_WITH_UNIT (LENGTH_MEASURE( 1.000000000000000100E-005 ), #116, 'distance_accuracy_value', 'NONE');
#42 = ORIENTED_EDGE ( 'NONE', *, *, #106, .T. ) ;
#43 = DIRECTION ( 'NONE',  ( -0.0000000000000000000, -0.0000000000000000000, -1.000000000000000000 ) ) ;
#44 =( NAMED_UNIT ( * ) SI_UNIT ( $, .STERADIAN. ) SOLID_ANGLE_UNIT ( ) );
#45 = VERTEX_POINT ( 'NONE', #61 ) ;
#46 = PLANE ( 'NONE',  #23 ) ;
#47 = CARTESIAN_POINT ( 'NONE',  ( 5.000000000000000000, 6.123233995736766300E-016, 1.000000000000000000 ) ) ;
#48 = STYLED_ITEM ( 'NONE', ( #108 ), #64 ) ;
#49 = APPLICATION_CONTEXT ( 'automotive_design' ) ;
#50 = APPLICATION_PROTOCOL_DEFINITION ( 'draft international standard', 'automotive_design', 1998, #49 ) ;
#51 = AXIS2_PLACEMENT_3D ( 'NONE', #8, #117, #76 ) ;
#52 = ORIENTED_EDGE ( 'NONE', *, *, #126, .F. ) ;
#53 = FACE_OUTER_BOUND ( 'NONE', #62, .T. ) ;
#54 = DIRECTION ( 'NONE',  ( 1.000000000000000000, 0.0000000000000000000, -0.0000000000000000000 ) ) ;
#55 = EDGE_CURVE ( 'NONE', #10, #97, #114, .T. ) ;
#56 = DIRECTION ( 'NONE',  ( -1.000000000000000000, 0.0000000000000000000, 0.0000000000000000000 ) ) ;
#57 = DIRECTION ( 'NONE',  ( -0.0000000000000000000, -0.0000000000000000000, -1.000000000000000000 ) ) ;
#58 = LINE ( 'NONE', #20, #81 ) ;
#59 = AXIS2_PLACEMENT_3D ( 'NONE', #15, #39, #22 ) ;
#60 = COLOUR_RGB ( '',1.000000000000000000, 1.000000000000000000, 1.000000000000000000 ) ;
#61 = CARTESIAN_POINT ( 'NONE',  ( 5.000000000000000000, 6.123233995736766300E-016, 0.0000000000000000000 ) ) ;
#62 = EDGE_LOOP ( 'NONE', ( #72, #42, #30, #87 ) ) ;
#63 = APPLICATION_PROTOCOL_DEFINITION ( 'draft international standard', 'automotive_design', 1998, #135 ) ;
#64 = MANIFOLD_SOLID_BREP ( 'Í¹Ì¨-À­Éì1', #6 ) ;
#65 = ORIENTED_EDGE ( 'NONE', *, *, #106, .F. ) ;
#66 = ADVANCED_FACE ( 'NONE', ( #21 ), #46, .T. ) ;
#67 = AXIS2_PLACEMENT_3D ( 'NONE', #90, #68, #130 ) ;
#68 = DIRECTION ( 'NONE',  ( 0.0000000000000000000, 0.0000000000000000000, 1.000000000000000000 ) ) ;
#69 = DIRECTION ( 'NONE',  ( 0.0000000000000000000, 0.0000000000000000000, 1.000000000000000000 ) ) ;
#70 = EDGE_CURVE ( 'NONE', #45, #32, #115, .T. ) ;
#71 = FILL_AREA_STYLE ('',( #19 ) ) ;
#72 = ORIENTED_EDGE ( 'NONE', *, *, #55, .F. ) ;
#73 =( GEOMETRIC_REPRESENTATION_CONTEXT ( 3 ) GLOBAL_UNCERTAINTY_ASSIGNED_CONTEXT ( ( #3 ) ) GLOBAL_UNIT_ASSIGNED_CONTEXT ( ( #94, #91, #132 ) ) REPRESENTATION_CONTEXT ( 'NONE', 'WORKASPACE' ) );
#74 = ADVANCED_FACE ( 'NONE', ( #53 ), #31, .T. ) ;
#75 = SURFACE_STYLE_FILL_AREA ( #71 ) ;
#76 = DIRECTION ( 'NONE',  ( 1.000000000000000000, 0.0000000000000000000, 0.0000000000000000000 ) ) ;
#77 = PRODUCT_DEFINITION_CONTEXT ( 'detailed design', #49, 'design' ) ;
#78 = CARTESIAN_POINT ( 'NONE',  ( 0.0000000000000000000, 0.0000000000000000000, 1.000000000000000000 ) ) ;
#79 = FILL_AREA_STYLE_COLOUR ( '', #60 ) ;
#80 = ORIENTED_EDGE ( 'NONE', *, *, #70, .F. ) ;
#81 = VECTOR ( 'NONE', #18, 1000.000000000000000 ) ;
#82 = EDGE_LOOP ( 'NONE', ( #102, #28 ) ) ;
#83 = SHAPE_DEFINITION_REPRESENTATION ( #24, #14 ) ;
#84 = CIRCLE ( 'NONE', #67, 5.000000000000000000 ) ;
#85 = CARTESIAN_POINT ( 'NONE',  ( 0.0000000000000000000, 0.0000000000000000000, 0.0000000000000000000 ) ) ;
#86 = STYLED_ITEM ( 'NONE', ( #11 ), #14 ) ;
#87 = ORIENTED_EDGE ( 'NONE', *, *, #92, .F. ) ;
#88 = ADVANCED_FACE ( 'NONE', ( #123 ), #26, .F. ) ;
#89 = CARTESIAN_POINT ( 'NONE',  ( -5.000000000000000000, 0.0000000000000000000, 0.0000000000000000000 ) ) ;
#90 = CARTESIAN_POINT ( 'NONE',  ( 0.0000000000000000000, 0.0000000000000000000, 0.0000000000000000000 ) ) ;
#91 =( NAMED_UNIT ( * ) PLANE_ANGLE_UNIT ( ) SI_UNIT ( $, .RADIAN. ) );
#92 = EDGE_CURVE ( 'NONE', #97, #32, #58, .T. ) ;
#93 = ORIENTED_EDGE ( 'NONE', *, *, #113, .F. ) ;
#94 =( LENGTH_UNIT ( ) NAMED_UNIT ( * ) SI_UNIT ( .MILLI., .METRE. ) );
#95 = PRODUCT ( '190114', '190114', '', ( #36 ) ) ;
#96 = AXIS2_PLACEMENT_3D ( 'NONE', #137, #128, #34 ) ;
#97 = VERTEX_POINT ( 'NONE', #16 ) ;
#98 = PRESENTATION_LAYER_ASSIGNMENT (  '', '', ( #86 ) ) ;
#99 = SURFACE_SIDE_STYLE ('',( #134 ) ) ;
#100 = AXIS2_PLACEMENT_3D ( 'NONE', #1, #69, #124 ) ;
#101 = DIRECTION ( 'NONE',  ( 0.0000000000000000000, 0.0000000000000000000, 1.000000000000000000 ) ) ;
#102 = ORIENTED_EDGE ( 'NONE', *, *, #113, .T. ) ;
#103 = FILL_AREA_STYLE ('',( #79 ) ) ;
#104 = ADVANCED_FACE ( 'NONE', ( #125 ), #7, .T. ) ;
#105 = CARTESIAN_POINT ( 'NONE',  ( 0.0000000000000000000, 0.0000000000000000000, 0.0000000000000000000 ) ) ;
#106 = EDGE_CURVE ( 'NONE', #10, #45, #4, .T. ) ;
#107 =( NAMED_UNIT ( * ) PLANE_ANGLE_UNIT ( ) SI_UNIT ( $, .RADIAN. ) );
#108 = PRESENTATION_STYLE_ASSIGNMENT (( #119 ) ) ;
#109 = COLOUR_RGB ( '',1.000000000000000000, 1.000000000000000000, 1.000000000000000000 ) ;
#110 =( GEOMETRIC_REPRESENTATION_CONTEXT ( 3 ) GLOBAL_UNCERTAINTY_ASSIGNED_CONTEXT ( ( #122 ) ) GLOBAL_UNIT_ASSIGNED_CONTEXT ( ( #139, #37, #44 ) ) REPRESENTATION_CONTEXT ( 'NONE', 'WORKASPACE' ) );
#111 = CARTESIAN_POINT ( 'NONE',  ( 5.000000000000000000, 6.123233995736766300E-016, 1.000000000000000000 ) ) ;
#112 = MECHANICAL_DESIGN_GEOMETRIC_PRESENTATION_REPRESENTATION (  '', ( #86 ), #118 ) ;
#113 = EDGE_CURVE ( 'NONE', #97, #10, #13, .T. ) ;
#114 = CIRCLE ( 'NONE', #100, 5.000000000000000000 ) ;
#115 = CIRCLE ( 'NONE', #96, 5.000000000000000000 ) ;
#116 =( LENGTH_UNIT ( ) NAMED_UNIT ( * ) SI_UNIT ( .MILLI., .METRE. ) );
#117 = DIRECTION ( 'NONE',  ( 0.0000000000000000000, 0.0000000000000000000, 1.000000000000000000 ) ) ;
#118 =( GEOMETRIC_REPRESENTATION_CONTEXT ( 3 ) GLOBAL_UNCERTAINTY_ASSIGNED_CONTEXT ( ( #41 ) ) GLOBAL_UNIT_ASSIGNED_CONTEXT ( ( #116, #107, #138 ) ) REPRESENTATION_CONTEXT ( 'NONE', 'WORKASPACE' ) );
#119 = SURFACE_STYLE_USAGE ( .BOTH. , #140 ) ;
#120 = EDGE_LOOP ( 'NONE', ( #65, #93, #2, #129 ) ) ;
#121 = SURFACE_STYLE_USAGE ( .BOTH. , #99 ) ;
#122 = UNCERTAINTY_MEASURE_WITH_UNIT (LENGTH_MEASURE( 1.000000000000000100E-005 ), #139, 'distance_accuracy_value', 'NONE');
#123 = FACE_OUTER_BOUND ( 'NONE', #127, .T. ) ;
#124 = DIRECTION ( 'NONE',  ( 1.000000000000000000, 0.0000000000000000000, 0.0000000000000000000 ) ) ;
#125 = FACE_OUTER_BOUND ( 'NONE', #120, .T. ) ;
#126 = EDGE_CURVE ( 'NONE', #32, #45, #84, .T. ) ;
#127 = EDGE_LOOP ( 'NONE', ( #52, #80 ) ) ;
#128 = DIRECTION ( 'NONE',  ( 0.0000000000000000000, 0.0000000000000000000, 1.000000000000000000 ) ) ;
#129 = ORIENTED_EDGE ( 'NONE', *, *, #126, .T. ) ;
#130 = DIRECTION ( 'NONE',  ( 1.000000000000000000, 0.0000000000000000000, 0.0000000000000000000 ) ) ;
#131 = AXIS2_PLACEMENT_3D ( 'NONE', #35, #43, #56 ) ;
#132 =( NAMED_UNIT ( * ) SI_UNIT ( $, .STERADIAN. ) SOLID_ANGLE_UNIT ( ) );
#133 = DIRECTION ( 'NONE',  ( 1.000000000000000000, 0.0000000000000000000, 0.0000000000000000000 ) ) ;
#134 = SURFACE_STYLE_FILL_AREA ( #103 ) ;
#135 = APPLICATION_CONTEXT ( 'automotive_design' ) ;
#136 = AXIS2_PLACEMENT_3D ( 'NONE', #85, #29, #133 ) ;
#137 = CARTESIAN_POINT ( 'NONE',  ( 0.0000000000000000000, 0.0000000000000000000, 0.0000000000000000000 ) ) ;
#138 =( NAMED_UNIT ( * ) SI_UNIT ( $, .STERADIAN. ) SOLID_ANGLE_UNIT ( ) );
#139 =( LENGTH_UNIT ( ) NAMED_UNIT ( * ) SI_UNIT ( .MILLI., .METRE. ) );
#140 = SURFACE_SIDE_STYLE ('',( #75 ) ) ;
ENDSEC;
END-ISO-10303-21;
