ISO-10303-21;
HEADER;
FILE_DESCRIPTION (( 'STEP AP214' ),
    '1' );
FILE_NAME ('190132.STEP',
    '2019-07-17T08:13:11',
    ( 'user' ),
    ( 'Î¢ÈíÖÐ¹ú' ),
    'SwSTEP 2.0',
    'SolidWorks 2016',
    '' );
FILE_SCHEMA (( 'AUTOMOTIVE_DESIGN' ));
ENDSEC;

DATA;
#1 = ORIENTED_EDGE ( 'NONE', *, *, #92, .T. ) ;
#2 = SURFACE_STYLE_USAGE ( .BOTH. , #130 ) ;
#3 = DIRECTION ( 'NONE',  ( -0.0000000000000000000, -0.0000000000000000000, -1.000000000000000000 ) ) ;
#4 = DIRECTION ( 'NONE',  ( 0.0000000000000000000, 0.0000000000000000000, 1.000000000000000000 ) ) ;
#5 = AXIS2_PLACEMENT_3D ( 'NONE', #126, #58, #68 ) ;
#6 = FILL_AREA_STYLE ('',( #46 ) ) ;
#7 =( LENGTH_UNIT ( ) NAMED_UNIT ( * ) SI_UNIT ( .MILLI., .METRE. ) );
#8 = EDGE_LOOP ( 'NONE', ( #115, #1, #94, #50 ) ) ;
#9 = CYLINDRICAL_SURFACE ( 'NONE', #136, 6.250000000000000000 ) ;
#10 = DIRECTION ( 'NONE',  ( 1.000000000000000000, 0.0000000000000000000, 0.0000000000000000000 ) ) ;
#11 = ORIENTED_EDGE ( 'NONE', *, *, #47, .T. ) ;
#12 = EDGE_CURVE ( 'NONE', #108, #118, #24, .T. ) ;
#13 = DIRECTION ( 'NONE',  ( 1.000000000000000000, 0.0000000000000000000, -0.0000000000000000000 ) ) ;
#14 = SURFACE_SIDE_STYLE ('',( #22 ) ) ;
#15 = PRODUCT_CONTEXT ( 'NONE', #56, 'mechanical' ) ;
#16 = APPLICATION_CONTEXT ( 'automotive_design' ) ;
#17 = APPLICATION_PROTOCOL_DEFINITION ( 'draft international standard', 'automotive_design', 1998, #16 ) ;
#18 = PRODUCT_DEFINITION ( 'Î´Öª', '', #23, #119 ) ;
#19 = PRESENTATION_STYLE_ASSIGNMENT (( #110 ) ) ;
#20 = FILL_AREA_STYLE ('',( #27 ) ) ;
#21 = PRESENTATION_LAYER_ASSIGNMENT (  '', '', ( #122 ) ) ;
#22 = SURFACE_STYLE_FILL_AREA ( #20 ) ;
#23 = PRODUCT_DEFINITION_FORMATION_WITH_SPECIFIED_SOURCE ( 'ÈÎºÎ', '', #131, .NOT_KNOWN. ) ;
#24 = CIRCLE ( 'NONE', #69, 6.250000000000000000 ) ;
#25 = DIRECTION ( 'NONE',  ( 0.0000000000000000000, 0.0000000000000000000, 1.000000000000000000 ) ) ;
#26 = MECHANICAL_DESIGN_GEOMETRIC_PRESENTATION_REPRESENTATION (  '', ( #122 ), #32 ) ;
#27 = FILL_AREA_STYLE_COLOUR ( '', #45 ) ;
#28 = ORIENTED_EDGE ( 'NONE', *, *, #138, .T. ) ;
#29 = ORIENTED_EDGE ( 'NONE', *, *, #53, .F. ) ;
#30 = PRODUCT_RELATED_PRODUCT_CATEGORY ( 'part', '', ( #131 ) ) ;
#31 = CYLINDRICAL_SURFACE ( 'NONE', #5, 6.250000000000000000 ) ;
#32 =( GEOMETRIC_REPRESENTATION_CONTEXT ( 3 ) GLOBAL_UNCERTAINTY_ASSIGNED_CONTEXT ( ( #52 ) ) GLOBAL_UNIT_ASSIGNED_CONTEXT ( ( #106, #62, #73 ) ) REPRESENTATION_CONTEXT ( 'NONE', 'WORKASPACE' ) );
#33 = EDGE_LOOP ( 'NONE', ( #11, #55 ) ) ;
#34 = AXIS2_PLACEMENT_3D ( 'NONE', #35, #90, #13 ) ;
#35 = CARTESIAN_POINT ( 'NONE',  ( 0.0000000000000000000, 0.0000000000000000000, 3.000000000000000000 ) ) ;
#36 = ADVANCED_BREP_SHAPE_REPRESENTATION ( '190132', ( #93, #49 ), #127 ) ;
#37 = CARTESIAN_POINT ( 'NONE',  ( 0.0000000000000000000, 0.0000000000000000000, 0.0000000000000000000 ) ) ;
#38 = DIRECTION ( 'NONE',  ( 1.000000000000000000, 0.0000000000000000000, 0.0000000000000000000 ) ) ;
#39 = UNCERTAINTY_MEASURE_WITH_UNIT (LENGTH_MEASURE( 1.000000000000000100E-005 ), #7, 'distance_accuracy_value', 'NONE');
#40 = CIRCLE ( 'NONE', #80, 6.250000000000000000 ) ;
#41 = VECTOR ( 'NONE', #3, 1000.000000000000000 ) ;
#42 = CARTESIAN_POINT ( 'NONE',  ( 6.250000000000000000, 7.654042494670957600E-016, 3.000000000000000000 ) ) ;
#43 = DIRECTION ( 'NONE',  ( 1.000000000000000000, 0.0000000000000000000, 0.0000000000000000000 ) ) ;
#44 = DIRECTION ( 'NONE',  ( -0.0000000000000000000, -0.0000000000000000000, -1.000000000000000000 ) ) ;
#45 = COLOUR_RGB ( '',1.000000000000000000, 1.000000000000000000, 1.000000000000000000 ) ;
#46 = FILL_AREA_STYLE_COLOUR ( '', #137 ) ;
#47 = EDGE_CURVE ( 'NONE', #95, #82, #40, .T. ) ;
#48 = FACE_OUTER_BOUND ( 'NONE', #33, .T. ) ;
#49 = AXIS2_PLACEMENT_3D ( 'NONE', #37, #4, #10 ) ;
#50 = ORIENTED_EDGE ( 'NONE', *, *, #138, .F. ) ;
#51 = DIRECTION ( 'NONE',  ( 0.0000000000000000000, 0.0000000000000000000, 1.000000000000000000 ) ) ;
#52 = UNCERTAINTY_MEASURE_WITH_UNIT (LENGTH_MEASURE( 1.000000000000000100E-005 ), #106, 'distance_accuracy_value', 'NONE');
#53 = EDGE_CURVE ( 'NONE', #118, #108, #135, .T. ) ;
#54 = CARTESIAN_POINT ( 'NONE',  ( -6.250000000000000000, 0.0000000000000000000, 3.000000000000000000 ) ) ;
#55 = ORIENTED_EDGE ( 'NONE', *, *, #75, .T. ) ;
#56 = APPLICATION_CONTEXT ( 'automotive_design' ) ;
#57 = ADVANCED_FACE ( 'NONE', ( #48 ), #84, .T. ) ;
#58 = DIRECTION ( 'NONE',  ( -0.0000000000000000000, -0.0000000000000000000, -1.000000000000000000 ) ) ;
#59 = SURFACE_STYLE_FILL_AREA ( #6 ) ;
#60 = EDGE_LOOP ( 'NONE', ( #29, #125 ) ) ;
#61 = FACE_OUTER_BOUND ( 'NONE', #139, .T. ) ;
#62 =( NAMED_UNIT ( * ) PLANE_ANGLE_UNIT ( ) SI_UNIT ( $, .RADIAN. ) );
#63 = ADVANCED_FACE ( 'NONE', ( #72 ), #124, .F. ) ;
#64 =( NAMED_UNIT ( * ) PLANE_ANGLE_UNIT ( ) SI_UNIT ( $, .RADIAN. ) );
#65 = DIRECTION ( 'NONE',  ( 1.000000000000000000, 0.0000000000000000000, 0.0000000000000000000 ) ) ;
#66 = ORIENTED_EDGE ( 'NONE', *, *, #53, .T. ) ;
#67 =( NAMED_UNIT ( * ) SI_UNIT ( $, .STERADIAN. ) SOLID_ANGLE_UNIT ( ) );
#68 = DIRECTION ( 'NONE',  ( -1.000000000000000000, 0.0000000000000000000, 0.0000000000000000000 ) ) ;
#69 = AXIS2_PLACEMENT_3D ( 'NONE', #88, #51, #77 ) ;
#70 = VECTOR ( 'NONE', #98, 1000.000000000000000 ) ;
#71 = CARTESIAN_POINT ( 'NONE',  ( 0.0000000000000000000, 0.0000000000000000000, 3.000000000000000000 ) ) ;
#72 = FACE_OUTER_BOUND ( 'NONE', #60, .T. ) ;
#73 =( NAMED_UNIT ( * ) SI_UNIT ( $, .STERADIAN. ) SOLID_ANGLE_UNIT ( ) );
#74 =( NAMED_UNIT ( * ) PLANE_ANGLE_UNIT ( ) SI_UNIT ( $, .RADIAN. ) );
#75 = EDGE_CURVE ( 'NONE', #82, #95, #103, .T. ) ;
#76 = ORIENTED_EDGE ( 'NONE', *, *, #47, .F. ) ;
#77 = DIRECTION ( 'NONE',  ( 1.000000000000000000, 0.0000000000000000000, 0.0000000000000000000 ) ) ;
#78 =( NAMED_UNIT ( * ) SI_UNIT ( $, .STERADIAN. ) SOLID_ANGLE_UNIT ( ) );
#79 = CLOSED_SHELL ( 'NONE', ( #140, #129, #57, #63 ) ) ;
#80 = AXIS2_PLACEMENT_3D ( 'NONE', #71, #25, #43 ) ;
#81 = DIRECTION ( 'NONE',  ( 1.000000000000000000, 0.0000000000000000000, -0.0000000000000000000 ) ) ;
#82 = VERTEX_POINT ( 'NONE', #42 ) ;
#83 = FACE_OUTER_BOUND ( 'NONE', #8, .T. ) ;
#84 = PLANE ( 'NONE',  #34 ) ;
#85 = DIRECTION ( 'NONE',  ( -1.000000000000000000, 0.0000000000000000000, 0.0000000000000000000 ) ) ;
#86 = DIRECTION ( 'NONE',  ( 0.0000000000000000000, 0.0000000000000000000, 1.000000000000000000 ) ) ;
#87 = CARTESIAN_POINT ( 'NONE',  ( 6.250000000000000000, 7.654042494670957600E-016, 3.000000000000000000 ) ) ;
#88 = CARTESIAN_POINT ( 'NONE',  ( 0.0000000000000000000, 0.0000000000000000000, 0.0000000000000000000 ) ) ;
#89 = AXIS2_PLACEMENT_3D ( 'NONE', #101, #99, #38 ) ;
#90 = DIRECTION ( 'NONE',  ( 0.0000000000000000000, 0.0000000000000000000, 1.000000000000000000 ) ) ;
#91 = STYLED_ITEM ( 'NONE', ( #19 ), #93 ) ;
#92 = EDGE_CURVE ( 'NONE', #82, #108, #100, .T. ) ;
#93 = MANIFOLD_SOLID_BREP ( 'Í¹Ì¨-À­Éì1', #79 ) ;
#94 = ORIENTED_EDGE ( 'NONE', *, *, #12, .T. ) ;
#95 = VERTEX_POINT ( 'NONE', #54 ) ;
#96 = PRODUCT_DEFINITION_SHAPE ( 'NONE', 'NONE',  #18 ) ;
#97 = PRESENTATION_LAYER_ASSIGNMENT (  '', '', ( #91 ) ) ;
#98 = DIRECTION ( 'NONE',  ( -0.0000000000000000000, -0.0000000000000000000, -1.000000000000000000 ) ) ;
#99 = DIRECTION ( 'NONE',  ( 0.0000000000000000000, 0.0000000000000000000, 1.000000000000000000 ) ) ;
#100 = LINE ( 'NONE', #87, #70 ) ;
#101 = CARTESIAN_POINT ( 'NONE',  ( 0.0000000000000000000, 0.0000000000000000000, 0.0000000000000000000 ) ) ;
#102 = AXIS2_PLACEMENT_3D ( 'NONE', #113, #133, #81 ) ;
#103 = CIRCLE ( 'NONE', #128, 6.250000000000000000 ) ;
#104 = MECHANICAL_DESIGN_GEOMETRIC_PRESENTATION_REPRESENTATION (  '', ( #91 ), #114 ) ;
#105 = PRESENTATION_STYLE_ASSIGNMENT (( #2 ) ) ;
#106 =( LENGTH_UNIT ( ) NAMED_UNIT ( * ) SI_UNIT ( .MILLI., .METRE. ) );
#107 = CARTESIAN_POINT ( 'NONE',  ( 0.0000000000000000000, 0.0000000000000000000, 3.000000000000000000 ) ) ;
#108 = VERTEX_POINT ( 'NONE', #134 ) ;
#109 =( LENGTH_UNIT ( ) NAMED_UNIT ( * ) SI_UNIT ( .MILLI., .METRE. ) );
#110 = SURFACE_STYLE_USAGE ( .BOTH. , #14 ) ;
#111 = ORIENTED_EDGE ( 'NONE', *, *, #92, .F. ) ;
#112 = CARTESIAN_POINT ( 'NONE',  ( 0.0000000000000000000, 0.0000000000000000000, 3.000000000000000000 ) ) ;
#113 = CARTESIAN_POINT ( 'NONE',  ( 0.0000000000000000000, 0.0000000000000000000, 0.0000000000000000000 ) ) ;
#114 =( GEOMETRIC_REPRESENTATION_CONTEXT ( 3 ) GLOBAL_UNCERTAINTY_ASSIGNED_CONTEXT ( ( #120 ) ) GLOBAL_UNIT_ASSIGNED_CONTEXT ( ( #109, #74, #67 ) ) REPRESENTATION_CONTEXT ( 'NONE', 'WORKASPACE' ) );
#115 = ORIENTED_EDGE ( 'NONE', *, *, #75, .F. ) ;
#116 = SHAPE_DEFINITION_REPRESENTATION ( #96, #36 ) ;
#117 = CARTESIAN_POINT ( 'NONE',  ( -6.250000000000000000, 0.0000000000000000000, 0.0000000000000000000 ) ) ;
#118 = VERTEX_POINT ( 'NONE', #117 ) ;
#119 = PRODUCT_DEFINITION_CONTEXT ( 'detailed design', #16, 'design' ) ;
#120 = UNCERTAINTY_MEASURE_WITH_UNIT (LENGTH_MEASURE( 1.000000000000000100E-005 ), #109, 'distance_accuracy_value', 'NONE');
#121 = APPLICATION_PROTOCOL_DEFINITION ( 'draft international standard', 'automotive_design', 1998, #56 ) ;
#122 = STYLED_ITEM ( 'NONE', ( #105 ), #36 ) ;
#123 = CARTESIAN_POINT ( 'NONE',  ( -6.250000000000000000, 0.0000000000000000000, 3.000000000000000000 ) ) ;
#124 = PLANE ( 'NONE',  #102 ) ;
#125 = ORIENTED_EDGE ( 'NONE', *, *, #12, .F. ) ;
#126 = CARTESIAN_POINT ( 'NONE',  ( 0.0000000000000000000, 0.0000000000000000000, 3.000000000000000000 ) ) ;
#127 =( GEOMETRIC_REPRESENTATION_CONTEXT ( 3 ) GLOBAL_UNCERTAINTY_ASSIGNED_CONTEXT ( ( #39 ) ) GLOBAL_UNIT_ASSIGNED_CONTEXT ( ( #7, #64, #78 ) ) REPRESENTATION_CONTEXT ( 'NONE', 'WORKASPACE' ) );
#128 = AXIS2_PLACEMENT_3D ( 'NONE', #112, #86, #65 ) ;
#129 = ADVANCED_FACE ( 'NONE', ( #61 ), #9, .T. ) ;
#130 = SURFACE_SIDE_STYLE ('',( #59 ) ) ;
#131 = PRODUCT ( '190132', '190132', '', ( #15 ) ) ;
#132 = LINE ( 'NONE', #123, #41 ) ;
#133 = DIRECTION ( 'NONE',  ( 0.0000000000000000000, 0.0000000000000000000, 1.000000000000000000 ) ) ;
#134 = CARTESIAN_POINT ( 'NONE',  ( 6.250000000000000000, 7.654042494670957600E-016, 0.0000000000000000000 ) ) ;
#135 = CIRCLE ( 'NONE', #89, 6.250000000000000000 ) ;
#136 = AXIS2_PLACEMENT_3D ( 'NONE', #107, #44, #85 ) ;
#137 = COLOUR_RGB ( '',1.000000000000000000, 1.000000000000000000, 1.000000000000000000 ) ;
#138 = EDGE_CURVE ( 'NONE', #95, #118, #132, .T. ) ;
#139 = EDGE_LOOP ( 'NONE', ( #111, #76, #28, #66 ) ) ;
#140 = ADVANCED_FACE ( 'NONE', ( #83 ), #31, .T. ) ;
ENDSEC;
END-ISO-10303-21;
