ISO-10303-21;
HEADER;
FILE_DESCRIPTION (( 'STEP AP214' ),
    '1' );
FILE_NAME ('190137.STEP',
    '2019-07-17T09:24:01',
    ( 'user' ),
    ( 'Î¢ÈíÖÐ¹ú' ),
    'SwSTEP 2.0',
    'SolidWorks 2016',
    '' );
FILE_SCHEMA (( 'AUTOMOTIVE_DESIGN' ));
ENDSEC;

DATA;
#1 = FACE_OUTER_BOUND ( 'NONE', #99, .T. ) ;
#2 = CARTESIAN_POINT ( 'NONE',  ( 0.0000000000000000000, 0.0000000000000000000, 8.000000000000000000 ) ) ;
#3 = CARTESIAN_POINT ( 'NONE',  ( -25.00000000000000000, 0.0000000000000000000, 8.000000000000000000 ) ) ;
#4 = APPLICATION_CONTEXT ( 'automotive_design' ) ;
#5 = CIRCLE ( 'NONE', #67, 25.00000000000000000 ) ;
#6 = DIRECTION ( 'NONE',  ( 1.000000000000000000, 0.0000000000000000000, -0.0000000000000000000 ) ) ;
#7 = DIRECTION ( 'NONE',  ( -0.0000000000000000000, -0.0000000000000000000, -1.000000000000000000 ) ) ;
#8 = FILL_AREA_STYLE_COLOUR ( '', #129 ) ;
#9 = PLANE ( 'NONE',  #79 ) ;
#10 =( NAMED_UNIT ( * ) SI_UNIT ( $, .STERADIAN. ) SOLID_ANGLE_UNIT ( ) );
#11 = ORIENTED_EDGE ( 'NONE', *, *, #22, .T. ) ;
#12 = ADVANCED_FACE ( 'NONE', ( #36 ), #88, .T. ) ;
#13 = VERTEX_POINT ( 'NONE', #75 ) ;
#14 = VERTEX_POINT ( 'NONE', #85 ) ;
#15 = DIRECTION ( 'NONE',  ( 0.0000000000000000000, 0.0000000000000000000, 1.000000000000000000 ) ) ;
#16 = EDGE_LOOP ( 'NONE', ( #69, #47 ) ) ;
#17 = DIRECTION ( 'NONE',  ( 1.000000000000000000, 0.0000000000000000000, 0.0000000000000000000 ) ) ;
#18 = PRESENTATION_STYLE_ASSIGNMENT (( #19 ) ) ;
#19 = SURFACE_STYLE_USAGE ( .BOTH. , #96 ) ;
#20 = CARTESIAN_POINT ( 'NONE',  ( 0.0000000000000000000, 0.0000000000000000000, 0.0000000000000000000 ) ) ;
#21 = APPLICATION_PROTOCOL_DEFINITION ( 'draft international standard', 'automotive_design', 1998, #32 ) ;
#22 = EDGE_CURVE ( 'NONE', #14, #13, #26, .T. ) ;
#23 = ORIENTED_EDGE ( 'NONE', *, *, #124, .F. ) ;
#24 = CARTESIAN_POINT ( 'NONE',  ( 0.0000000000000000000, 0.0000000000000000000, 8.000000000000000000 ) ) ;
#25 = CARTESIAN_POINT ( 'NONE',  ( 0.0000000000000000000, 0.0000000000000000000, 0.0000000000000000000 ) ) ;
#26 = CIRCLE ( 'NONE', #138, 25.00000000000000000 ) ;
#27 = SHAPE_DEFINITION_REPRESENTATION ( #109, #51 ) ;
#28 =( NAMED_UNIT ( * ) SI_UNIT ( $, .STERADIAN. ) SOLID_ANGLE_UNIT ( ) );
#29 = PRESENTATION_LAYER_ASSIGNMENT (  '', '', ( #104 ) ) ;
#30 = DIRECTION ( 'NONE',  ( 1.000000000000000000, 0.0000000000000000000, 0.0000000000000000000 ) ) ;
#31 = CIRCLE ( 'NONE', #54, 25.00000000000000000 ) ;
#32 = APPLICATION_CONTEXT ( 'automotive_design' ) ;
#33 = AXIS2_PLACEMENT_3D ( 'NONE', #2, #74, #59 ) ;
#34 = CIRCLE ( 'NONE', #33, 25.00000000000000000 ) ;
#35 = EDGE_CURVE ( 'NONE', #130, #139, #34, .T. ) ;
#36 = FACE_OUTER_BOUND ( 'NONE', #39, .T. ) ;
#37 = MECHANICAL_DESIGN_GEOMETRIC_PRESENTATION_REPRESENTATION (  '', ( #104 ), #48 ) ;
#38 = CARTESIAN_POINT ( 'NONE',  ( 0.0000000000000000000, 0.0000000000000000000, 0.0000000000000000000 ) ) ;
#39 = EDGE_LOOP ( 'NONE', ( #127, #60, #116, #49 ) ) ;
#40 = CARTESIAN_POINT ( 'NONE',  ( 0.0000000000000000000, 0.0000000000000000000, 8.000000000000000000 ) ) ;
#41 = PRESENTATION_STYLE_ASSIGNMENT (( #123 ) ) ;
#42 = DIRECTION ( 'NONE',  ( 0.0000000000000000000, 0.0000000000000000000, 1.000000000000000000 ) ) ;
#43 = SURFACE_STYLE_FILL_AREA ( #86 ) ;
#44 = DIRECTION ( 'NONE',  ( 1.000000000000000000, 0.0000000000000000000, -0.0000000000000000000 ) ) ;
#45 = AXIS2_PLACEMENT_3D ( 'NONE', #38, #133, #6 ) ;
#46 = SURFACE_SIDE_STYLE ('',( #70 ) ) ;
#47 = ORIENTED_EDGE ( 'NONE', *, *, #35, .T. ) ;
#48 =( GEOMETRIC_REPRESENTATION_CONTEXT ( 3 ) GLOBAL_UNCERTAINTY_ASSIGNED_CONTEXT ( ( #78 ) ) GLOBAL_UNIT_ASSIGNED_CONTEXT ( ( #53, #135, #64 ) ) REPRESENTATION_CONTEXT ( 'NONE', 'WORKASPACE' ) );
#49 = ORIENTED_EDGE ( 'NONE', *, *, #66, .F. ) ;
#50 = LINE ( 'NONE', #119, #101 ) ;
#51 = ADVANCED_BREP_SHAPE_REPRESENTATION ( '190137', ( #117, #140 ), #68 ) ;
#52 = CARTESIAN_POINT ( 'NONE',  ( 0.0000000000000000000, 0.0000000000000000000, 8.000000000000000000 ) ) ;
#53 =( LENGTH_UNIT ( ) NAMED_UNIT ( * ) SI_UNIT ( .MILLI., .METRE. ) );
#54 = AXIS2_PLACEMENT_3D ( 'NONE', #20, #97, #30 ) ;
#55 = CARTESIAN_POINT ( 'NONE',  ( 0.0000000000000000000, 0.0000000000000000000, 0.0000000000000000000 ) ) ;
#56 =( LENGTH_UNIT ( ) NAMED_UNIT ( * ) SI_UNIT ( .MILLI., .METRE. ) );
#57 = EDGE_LOOP ( 'NONE', ( #102, #23 ) ) ;
#58 = PRODUCT ( '190137', '190137', '', ( #65 ) ) ;
#59 = DIRECTION ( 'NONE',  ( 1.000000000000000000, 0.0000000000000000000, 0.0000000000000000000 ) ) ;
#60 = ORIENTED_EDGE ( 'NONE', *, *, #114, .T. ) ;
#61 = DIRECTION ( 'NONE',  ( -1.000000000000000000, 0.0000000000000000000, 0.0000000000000000000 ) ) ;
#62 = COLOUR_RGB ( '',1.000000000000000000, 1.000000000000000000, 1.000000000000000000 ) ;
#63 = CARTESIAN_POINT ( 'NONE',  ( 0.0000000000000000000, 0.0000000000000000000, 8.000000000000000000 ) ) ;
#64 =( NAMED_UNIT ( * ) SI_UNIT ( $, .STERADIAN. ) SOLID_ANGLE_UNIT ( ) );
#65 = PRODUCT_CONTEXT ( 'NONE', #32, 'mechanical' ) ;
#66 = EDGE_CURVE ( 'NONE', #139, #14, #92, .T. ) ;
#67 = AXIS2_PLACEMENT_3D ( 'NONE', #24, #15, #93 ) ;
#68 =( GEOMETRIC_REPRESENTATION_CONTEXT ( 3 ) GLOBAL_UNCERTAINTY_ASSIGNED_CONTEXT ( ( #128 ) ) GLOBAL_UNIT_ASSIGNED_CONTEXT ( ( #118, #81, #10 ) ) REPRESENTATION_CONTEXT ( 'NONE', 'WORKASPACE' ) );
#69 = ORIENTED_EDGE ( 'NONE', *, *, #72, .T. ) ;
#70 = SURFACE_STYLE_FILL_AREA ( #111 ) ;
#71 = FACE_OUTER_BOUND ( 'NONE', #57, .T. ) ;
#72 = EDGE_CURVE ( 'NONE', #139, #130, #5, .T. ) ;
#73 = ORIENTED_EDGE ( 'NONE', *, *, #114, .F. ) ;
#74 = DIRECTION ( 'NONE',  ( 0.0000000000000000000, 0.0000000000000000000, 1.000000000000000000 ) ) ;
#75 = CARTESIAN_POINT ( 'NONE',  ( 25.00000000000000000, 3.061616997868383000E-015, 0.0000000000000000000 ) ) ;
#76 = DIRECTION ( 'NONE',  ( -0.0000000000000000000, -0.0000000000000000000, -1.000000000000000000 ) ) ;
#77 = CLOSED_SHELL ( 'NONE', ( #12, #83, #125, #103 ) ) ;
#78 = UNCERTAINTY_MEASURE_WITH_UNIT (LENGTH_MEASURE( 1.000000000000000100E-005 ), #53, 'distance_accuracy_value', 'NONE');
#79 = AXIS2_PLACEMENT_3D ( 'NONE', #63, #110, #44 ) ;
#80 = PRODUCT_DEFINITION_CONTEXT ( 'detailed design', #4, 'design' ) ;
#81 =( NAMED_UNIT ( * ) PLANE_ANGLE_UNIT ( ) SI_UNIT ( $, .RADIAN. ) );
#82 = APPLICATION_PROTOCOL_DEFINITION ( 'draft international standard', 'automotive_design', 1998, #4 ) ;
#83 = ADVANCED_FACE ( 'NONE', ( #1 ), #134, .T. ) ;
#84 = PLANE ( 'NONE',  #45 ) ;
#85 = CARTESIAN_POINT ( 'NONE',  ( -25.00000000000000000, 0.0000000000000000000, 0.0000000000000000000 ) ) ;
#86 = FILL_AREA_STYLE ('',( #8 ) ) ;
#87 = CARTESIAN_POINT ( 'NONE',  ( 25.00000000000000000, 3.061616997868383000E-015, 8.000000000000000000 ) ) ;
#88 = CYLINDRICAL_SURFACE ( 'NONE', #112, 25.00000000000000000 ) ;
#89 = UNCERTAINTY_MEASURE_WITH_UNIT (LENGTH_MEASURE( 1.000000000000000100E-005 ), #56, 'distance_accuracy_value', 'NONE');
#90 = STYLED_ITEM ( 'NONE', ( #41 ), #51 ) ;
#91 = FACE_OUTER_BOUND ( 'NONE', #16, .T. ) ;
#92 = LINE ( 'NONE', #3, #108 ) ;
#93 = DIRECTION ( 'NONE',  ( 1.000000000000000000, 0.0000000000000000000, 0.0000000000000000000 ) ) ;
#94 = ORIENTED_EDGE ( 'NONE', *, *, #72, .F. ) ;
#95 = DIRECTION ( 'NONE',  ( 0.0000000000000000000, 0.0000000000000000000, 1.000000000000000000 ) ) ;
#96 = SURFACE_SIDE_STYLE ('',( #43 ) ) ;
#97 = DIRECTION ( 'NONE',  ( 0.0000000000000000000, 0.0000000000000000000, 1.000000000000000000 ) ) ;
#98 = PRESENTATION_LAYER_ASSIGNMENT (  '', '', ( #90 ) ) ;
#99 = EDGE_LOOP ( 'NONE', ( #73, #94, #120, #11 ) ) ;
#100 = AXIS2_PLACEMENT_3D ( 'NONE', #52, #7, #132 ) ;
#101 = VECTOR ( 'NONE', #76, 1000.000000000000000 ) ;
#102 = ORIENTED_EDGE ( 'NONE', *, *, #22, .F. ) ;
#103 = ADVANCED_FACE ( 'NONE', ( #71 ), #84, .F. ) ;
#104 = STYLED_ITEM ( 'NONE', ( #18 ), #117 ) ;
#105 = MECHANICAL_DESIGN_GEOMETRIC_PRESENTATION_REPRESENTATION (  '', ( #90 ), #113 ) ;
#106 = PRODUCT_DEFINITION ( 'Î´Öª', '', #115, #80 ) ;
#107 = DIRECTION ( 'NONE',  ( -0.0000000000000000000, -0.0000000000000000000, -1.000000000000000000 ) ) ;
#108 = VECTOR ( 'NONE', #107, 1000.000000000000000 ) ;
#109 = PRODUCT_DEFINITION_SHAPE ( 'NONE', 'NONE',  #106 ) ;
#110 = DIRECTION ( 'NONE',  ( 0.0000000000000000000, 0.0000000000000000000, 1.000000000000000000 ) ) ;
#111 = FILL_AREA_STYLE ('',( #122 ) ) ;
#112 = AXIS2_PLACEMENT_3D ( 'NONE', #40, #131, #61 ) ;
#113 =( GEOMETRIC_REPRESENTATION_CONTEXT ( 3 ) GLOBAL_UNCERTAINTY_ASSIGNED_CONTEXT ( ( #89 ) ) GLOBAL_UNIT_ASSIGNED_CONTEXT ( ( #56, #137, #28 ) ) REPRESENTATION_CONTEXT ( 'NONE', 'WORKASPACE' ) );
#114 = EDGE_CURVE ( 'NONE', #130, #13, #50, .T. ) ;
#115 = PRODUCT_DEFINITION_FORMATION_WITH_SPECIFIED_SOURCE ( 'ÈÎºÎ', '', #58, .NOT_KNOWN. ) ;
#116 = ORIENTED_EDGE ( 'NONE', *, *, #124, .T. ) ;
#117 = MANIFOLD_SOLID_BREP ( 'Í¹Ì¨-À­Éì1', #77 ) ;
#118 =( LENGTH_UNIT ( ) NAMED_UNIT ( * ) SI_UNIT ( .MILLI., .METRE. ) );
#119 = CARTESIAN_POINT ( 'NONE',  ( 25.00000000000000000, 3.061616997868383000E-015, 8.000000000000000000 ) ) ;
#120 = ORIENTED_EDGE ( 'NONE', *, *, #66, .T. ) ;
#121 = DIRECTION ( 'NONE',  ( 1.000000000000000000, 0.0000000000000000000, 0.0000000000000000000 ) ) ;
#122 = FILL_AREA_STYLE_COLOUR ( '', #62 ) ;
#123 = SURFACE_STYLE_USAGE ( .BOTH. , #46 ) ;
#124 = EDGE_CURVE ( 'NONE', #13, #14, #31, .T. ) ;
#125 = ADVANCED_FACE ( 'NONE', ( #91 ), #9, .T. ) ;
#126 = PRODUCT_RELATED_PRODUCT_CATEGORY ( 'part', '', ( #58 ) ) ;
#127 = ORIENTED_EDGE ( 'NONE', *, *, #35, .F. ) ;
#128 = UNCERTAINTY_MEASURE_WITH_UNIT (LENGTH_MEASURE( 1.000000000000000100E-005 ), #118, 'distance_accuracy_value', 'NONE');
#129 = COLOUR_RGB ( '',1.000000000000000000, 1.000000000000000000, 1.000000000000000000 ) ;
#130 = VERTEX_POINT ( 'NONE', #87 ) ;
#131 = DIRECTION ( 'NONE',  ( -0.0000000000000000000, -0.0000000000000000000, -1.000000000000000000 ) ) ;
#132 = DIRECTION ( 'NONE',  ( -1.000000000000000000, 0.0000000000000000000, 0.0000000000000000000 ) ) ;
#133 = DIRECTION ( 'NONE',  ( 0.0000000000000000000, 0.0000000000000000000, 1.000000000000000000 ) ) ;
#134 = CYLINDRICAL_SURFACE ( 'NONE', #100, 25.00000000000000000 ) ;
#135 =( NAMED_UNIT ( * ) PLANE_ANGLE_UNIT ( ) SI_UNIT ( $, .RADIAN. ) );
#136 = CARTESIAN_POINT ( 'NONE',  ( -25.00000000000000000, 0.0000000000000000000, 8.000000000000000000 ) ) ;
#137 =( NAMED_UNIT ( * ) PLANE_ANGLE_UNIT ( ) SI_UNIT ( $, .RADIAN. ) );
#138 = AXIS2_PLACEMENT_3D ( 'NONE', #25, #95, #17 ) ;
#139 = VERTEX_POINT ( 'NONE', #136 ) ;
#140 = AXIS2_PLACEMENT_3D ( 'NONE', #55, #42, #121 ) ;
ENDSEC;
END-ISO-10303-21;
