ISO-10303-21;
HEADER;
FILE_DESCRIPTION (( 'STEP AP214' ),
    '1' );
FILE_NAME ('190158.STEP',
    '2019-07-18T06:24:02',
    ( 'user' ),
    ( 'Î¢ÈíÖÐ¹ú' ),
    'SwSTEP 2.0',
    'SolidWorks 2016',
    '' );
FILE_SCHEMA (( 'AUTOMOTIVE_DESIGN' ));
ENDSEC;

DATA;
#1 =( GEOMETRIC_REPRESENTATION_CONTEXT ( 3 ) GLOBAL_UNCERTAINTY_ASSIGNED_CONTEXT ( ( #24 ) ) GLOBAL_UNIT_ASSIGNED_CONTEXT ( ( #38, #105, #31 ) ) REPRESENTATION_CONTEXT ( 'NONE', 'WORKASPACE' ) );
#2 = AXIS2_PLACEMENT_3D ( 'NONE', #32, #97, #85 ) ;
#3 = ORIENTED_EDGE ( 'NONE', *, *, #21, .F. ) ;
#4 = AXIS2_PLACEMENT_3D ( 'NONE', #120, #39, #107 ) ;
#5 = SURFACE_SIDE_STYLE ('',( #106 ) ) ;
#6 = FILL_AREA_STYLE_COLOUR ( '', #59 ) ;
#7 =( GEOMETRIC_REPRESENTATION_CONTEXT ( 3 ) GLOBAL_UNCERTAINTY_ASSIGNED_CONTEXT ( ( #110 ) ) GLOBAL_UNIT_ASSIGNED_CONTEXT ( ( #42, #114, #36 ) ) REPRESENTATION_CONTEXT ( 'NONE', 'WORKASPACE' ) );
#8 = DIRECTION ( 'NONE',  ( 0.0000000000000000000, 0.0000000000000000000, 1.000000000000000000 ) ) ;
#9 = PLANE ( 'NONE',  #62 ) ;
#10 = CARTESIAN_POINT ( 'NONE',  ( 0.0000000000000000000, 0.0000000000000000000, 5.000000000000000000 ) ) ;
#11 = EDGE_CURVE ( 'NONE', #111, #104, #78, .T. ) ;
#12 = MECHANICAL_DESIGN_GEOMETRIC_PRESENTATION_REPRESENTATION (  '', ( #13 ), #1 ) ;
#13 = STYLED_ITEM ( 'NONE', ( #22 ), #54 ) ;
#14 = ORIENTED_EDGE ( 'NONE', *, *, #66, .T. ) ;
#15 = CIRCLE ( 'NONE', #91, 20.00000000000000000 ) ;
#16 = PRODUCT_DEFINITION_SHAPE ( 'NONE', 'NONE',  #122 ) ;
#17 = EDGE_CURVE ( 'NONE', #123, #53, #109, .T. ) ;
#18 = APPLICATION_CONTEXT ( 'automotive_design' ) ;
#19 = DIRECTION ( 'NONE',  ( 1.000000000000000000, 0.0000000000000000000, -0.0000000000000000000 ) ) ;
#20 = DIRECTION ( 'NONE',  ( -0.0000000000000000000, -0.0000000000000000000, -1.000000000000000000 ) ) ;
#21 = EDGE_CURVE ( 'NONE', #111, #53, #48, .T. ) ;
#22 = PRESENTATION_STYLE_ASSIGNMENT (( #119 ) ) ;
#23 = ORIENTED_EDGE ( 'NONE', *, *, #77, .F. ) ;
#24 = UNCERTAINTY_MEASURE_WITH_UNIT (LENGTH_MEASURE( 1.000000000000000100E-005 ), #38, 'distance_accuracy_value', 'NONE');
#25 = FACE_OUTER_BOUND ( 'NONE', #41, .T. ) ;
#26 = APPLICATION_CONTEXT ( 'automotive_design' ) ;
#27 = APPLICATION_PROTOCOL_DEFINITION ( 'draft international standard', 'automotive_design', 1998, #18 ) ;
#28 = DIRECTION ( 'NONE',  ( -0.0000000000000000000, -0.0000000000000000000, -1.000000000000000000 ) ) ;
#29 = EDGE_LOOP ( 'NONE', ( #3, #89, #137, #51 ) ) ;
#30 = AXIS2_PLACEMENT_3D ( 'NONE', #138, #60, #127 ) ;
#31 =( NAMED_UNIT ( * ) SI_UNIT ( $, .STERADIAN. ) SOLID_ANGLE_UNIT ( ) );
#32 = CARTESIAN_POINT ( 'NONE',  ( 0.0000000000000000000, 0.0000000000000000000, 5.000000000000000000 ) ) ;
#33 = UNCERTAINTY_MEASURE_WITH_UNIT (LENGTH_MEASURE( 1.000000000000000100E-005 ), #135, 'distance_accuracy_value', 'NONE');
#34 = CIRCLE ( 'NONE', #30, 20.00000000000000000 ) ;
#35 = DIRECTION ( 'NONE',  ( 1.000000000000000000, 0.0000000000000000000, 0.0000000000000000000 ) ) ;
#36 =( NAMED_UNIT ( * ) SI_UNIT ( $, .STERADIAN. ) SOLID_ANGLE_UNIT ( ) );
#37 = PLANE ( 'NONE',  #88 ) ;
#38 =( LENGTH_UNIT ( ) NAMED_UNIT ( * ) SI_UNIT ( .MILLI., .METRE. ) );
#39 = DIRECTION ( 'NONE',  ( 0.0000000000000000000, 0.0000000000000000000, 1.000000000000000000 ) ) ;
#40 = ADVANCED_FACE ( 'NONE', ( #25 ), #115, .T. ) ;
#41 = EDGE_LOOP ( 'NONE', ( #64, #100, #131, #98 ) ) ;
#42 =( LENGTH_UNIT ( ) NAMED_UNIT ( * ) SI_UNIT ( .MILLI., .METRE. ) );
#43 = CARTESIAN_POINT ( 'NONE',  ( -20.00000000000000000, 0.0000000000000000000, 0.0000000000000000000 ) ) ;
#44 = DIRECTION ( 'NONE',  ( 0.0000000000000000000, 0.0000000000000000000, 1.000000000000000000 ) ) ;
#45 = SURFACE_SIDE_STYLE ('',( #136 ) ) ;
#46 = CARTESIAN_POINT ( 'NONE',  ( 20.00000000000000000, 2.449293598294706500E-015, 5.000000000000000000 ) ) ;
#47 = DIRECTION ( 'NONE',  ( 0.0000000000000000000, 0.0000000000000000000, 1.000000000000000000 ) ) ;
#48 = LINE ( 'NONE', #46, #52 ) ;
#49 = PRODUCT ( '190158', '190158', '', ( #101 ) ) ;
#50 = CYLINDRICAL_SURFACE ( 'NONE', #99, 20.00000000000000000 ) ;
#51 = ORIENTED_EDGE ( 'NONE', *, *, #17, .T. ) ;
#52 = VECTOR ( 'NONE', #72, 1000.000000000000000 ) ;
#53 = VERTEX_POINT ( 'NONE', #139 ) ;
#54 = MANIFOLD_SOLID_BREP ( 'Í¹Ì¨-À­Éì1', #116 ) ;
#55 = AXIS2_PLACEMENT_3D ( 'NONE', #83, #47, #63 ) ;
#56 =( NAMED_UNIT ( * ) PLANE_ANGLE_UNIT ( ) SI_UNIT ( $, .RADIAN. ) );
#57 = ADVANCED_BREP_SHAPE_REPRESENTATION ( '190158', ( #54, #112 ), #7 ) ;
#58 = CARTESIAN_POINT ( 'NONE',  ( 0.0000000000000000000, 0.0000000000000000000, 0.0000000000000000000 ) ) ;
#59 = COLOUR_RGB ( '',1.000000000000000000, 1.000000000000000000, 1.000000000000000000 ) ;
#60 = DIRECTION ( 'NONE',  ( 0.0000000000000000000, 0.0000000000000000000, 1.000000000000000000 ) ) ;
#61 = FILL_AREA_STYLE_COLOUR ( '', #102 ) ;
#62 = AXIS2_PLACEMENT_3D ( 'NONE', #10, #44, #117 ) ;
#63 = DIRECTION ( 'NONE',  ( 1.000000000000000000, 0.0000000000000000000, 0.0000000000000000000 ) ) ;
#64 = ORIENTED_EDGE ( 'NONE', *, *, #11, .F. ) ;
#65 = FACE_OUTER_BOUND ( 'NONE', #29, .T. ) ;
#66 = EDGE_CURVE ( 'NONE', #104, #111, #34, .T. ) ;
#67 = STYLED_ITEM ( 'NONE', ( #86 ), #57 ) ;
#68 = SURFACE_STYLE_USAGE ( .BOTH. , #5 ) ;
#69 = DIRECTION ( 'NONE',  ( 1.000000000000000000, 0.0000000000000000000, 0.0000000000000000000 ) ) ;
#70 = CARTESIAN_POINT ( 'NONE',  ( -20.00000000000000000, 0.0000000000000000000, 5.000000000000000000 ) ) ;
#71 = EDGE_LOOP ( 'NONE', ( #133, #23 ) ) ;
#72 = DIRECTION ( 'NONE',  ( -0.0000000000000000000, -0.0000000000000000000, -1.000000000000000000 ) ) ;
#73 = ADVANCED_FACE ( 'NONE', ( #74 ), #9, .T. ) ;
#74 = FACE_OUTER_BOUND ( 'NONE', #140, .T. ) ;
#75 = PRESENTATION_LAYER_ASSIGNMENT (  '', '', ( #67 ) ) ;
#76 = ORIENTED_EDGE ( 'NONE', *, *, #11, .T. ) ;
#77 = EDGE_CURVE ( 'NONE', #53, #123, #15, .T. ) ;
#78 = CIRCLE ( 'NONE', #55, 20.00000000000000000 ) ;
#79 = FILL_AREA_STYLE ('',( #6 ) ) ;
#80 = CARTESIAN_POINT ( 'NONE',  ( -20.00000000000000000, 0.0000000000000000000, 5.000000000000000000 ) ) ;
#81 = CARTESIAN_POINT ( 'NONE',  ( 0.0000000000000000000, 0.0000000000000000000, 0.0000000000000000000 ) ) ;
#82 = DIRECTION ( 'NONE',  ( -1.000000000000000000, 0.0000000000000000000, 0.0000000000000000000 ) ) ;
#83 = CARTESIAN_POINT ( 'NONE',  ( 0.0000000000000000000, 0.0000000000000000000, 5.000000000000000000 ) ) ;
#84 = MECHANICAL_DESIGN_GEOMETRIC_PRESENTATION_REPRESENTATION (  '', ( #67 ), #92 ) ;
#85 = DIRECTION ( 'NONE',  ( -1.000000000000000000, 0.0000000000000000000, 0.0000000000000000000 ) ) ;
#86 = PRESENTATION_STYLE_ASSIGNMENT (( #68 ) ) ;
#87 = VECTOR ( 'NONE', #28, 1000.000000000000000 ) ;
#88 = AXIS2_PLACEMENT_3D ( 'NONE', #96, #95, #19 ) ;
#89 = ORIENTED_EDGE ( 'NONE', *, *, #66, .F. ) ;
#90 = FACE_OUTER_BOUND ( 'NONE', #71, .T. ) ;
#91 = AXIS2_PLACEMENT_3D ( 'NONE', #81, #8, #69 ) ;
#92 =( GEOMETRIC_REPRESENTATION_CONTEXT ( 3 ) GLOBAL_UNCERTAINTY_ASSIGNED_CONTEXT ( ( #33 ) ) GLOBAL_UNIT_ASSIGNED_CONTEXT ( ( #135, #56, #124 ) ) REPRESENTATION_CONTEXT ( 'NONE', 'WORKASPACE' ) );
#93 = SHAPE_DEFINITION_REPRESENTATION ( #16, #57 ) ;
#94 = APPLICATION_PROTOCOL_DEFINITION ( 'draft international standard', 'automotive_design', 1998, #26 ) ;
#95 = DIRECTION ( 'NONE',  ( 0.0000000000000000000, 0.0000000000000000000, 1.000000000000000000 ) ) ;
#96 = CARTESIAN_POINT ( 'NONE',  ( 0.0000000000000000000, 0.0000000000000000000, 0.0000000000000000000 ) ) ;
#97 = DIRECTION ( 'NONE',  ( -0.0000000000000000000, -0.0000000000000000000, -1.000000000000000000 ) ) ;
#98 = ORIENTED_EDGE ( 'NONE', *, *, #132, .F. ) ;
#99 = AXIS2_PLACEMENT_3D ( 'NONE', #103, #20, #82 ) ;
#100 = ORIENTED_EDGE ( 'NONE', *, *, #21, .T. ) ;
#101 = PRODUCT_CONTEXT ( 'NONE', #18, 'mechanical' ) ;
#102 = COLOUR_RGB ( '',1.000000000000000000, 1.000000000000000000, 1.000000000000000000 ) ;
#103 = CARTESIAN_POINT ( 'NONE',  ( 0.0000000000000000000, 0.0000000000000000000, 5.000000000000000000 ) ) ;
#104 = VERTEX_POINT ( 'NONE', #70 ) ;
#105 =( NAMED_UNIT ( * ) PLANE_ANGLE_UNIT ( ) SI_UNIT ( $, .RADIAN. ) );
#106 = SURFACE_STYLE_FILL_AREA ( #79 ) ;
#107 = DIRECTION ( 'NONE',  ( 1.000000000000000000, 0.0000000000000000000, 0.0000000000000000000 ) ) ;
#108 = ADVANCED_FACE ( 'NONE', ( #65 ), #50, .T. ) ;
#109 = CIRCLE ( 'NONE', #4, 20.00000000000000000 ) ;
#110 = UNCERTAINTY_MEASURE_WITH_UNIT (LENGTH_MEASURE( 1.000000000000000100E-005 ), #42, 'distance_accuracy_value', 'NONE');
#111 = VERTEX_POINT ( 'NONE', #126 ) ;
#112 = AXIS2_PLACEMENT_3D ( 'NONE', #58, #113, #35 ) ;
#113 = DIRECTION ( 'NONE',  ( 0.0000000000000000000, 0.0000000000000000000, 1.000000000000000000 ) ) ;
#114 =( NAMED_UNIT ( * ) PLANE_ANGLE_UNIT ( ) SI_UNIT ( $, .RADIAN. ) );
#115 = CYLINDRICAL_SURFACE ( 'NONE', #2, 20.00000000000000000 ) ;
#116 = CLOSED_SHELL ( 'NONE', ( #40, #108, #73, #125 ) ) ;
#117 = DIRECTION ( 'NONE',  ( 1.000000000000000000, 0.0000000000000000000, -0.0000000000000000000 ) ) ;
#118 = PRODUCT_DEFINITION_CONTEXT ( 'detailed design', #26, 'design' ) ;
#119 = SURFACE_STYLE_USAGE ( .BOTH. , #45 ) ;
#120 = CARTESIAN_POINT ( 'NONE',  ( 0.0000000000000000000, 0.0000000000000000000, 0.0000000000000000000 ) ) ;
#121 = LINE ( 'NONE', #80, #87 ) ;
#122 = PRODUCT_DEFINITION ( 'Î´Öª', '', #130, #118 ) ;
#123 = VERTEX_POINT ( 'NONE', #43 ) ;
#124 =( NAMED_UNIT ( * ) SI_UNIT ( $, .STERADIAN. ) SOLID_ANGLE_UNIT ( ) );
#125 = ADVANCED_FACE ( 'NONE', ( #90 ), #37, .F. ) ;
#126 = CARTESIAN_POINT ( 'NONE',  ( 20.00000000000000000, 2.449293598294706500E-015, 5.000000000000000000 ) ) ;
#127 = DIRECTION ( 'NONE',  ( 1.000000000000000000, 0.0000000000000000000, 0.0000000000000000000 ) ) ;
#128 = FILL_AREA_STYLE ('',( #61 ) ) ;
#129 = PRESENTATION_LAYER_ASSIGNMENT (  '', '', ( #13 ) ) ;
#130 = PRODUCT_DEFINITION_FORMATION_WITH_SPECIFIED_SOURCE ( 'ÈÎºÎ', '', #49, .NOT_KNOWN. ) ;
#131 = ORIENTED_EDGE ( 'NONE', *, *, #77, .T. ) ;
#132 = EDGE_CURVE ( 'NONE', #104, #123, #121, .T. ) ;
#133 = ORIENTED_EDGE ( 'NONE', *, *, #17, .F. ) ;
#134 = PRODUCT_RELATED_PRODUCT_CATEGORY ( 'part', '', ( #49 ) ) ;
#135 =( LENGTH_UNIT ( ) NAMED_UNIT ( * ) SI_UNIT ( .MILLI., .METRE. ) );
#136 = SURFACE_STYLE_FILL_AREA ( #128 ) ;
#137 = ORIENTED_EDGE ( 'NONE', *, *, #132, .T. ) ;
#138 = CARTESIAN_POINT ( 'NONE',  ( 0.0000000000000000000, 0.0000000000000000000, 5.000000000000000000 ) ) ;
#139 = CARTESIAN_POINT ( 'NONE',  ( 20.00000000000000000, 2.449293598294706500E-015, 0.0000000000000000000 ) ) ;
#140 = EDGE_LOOP ( 'NONE', ( #14, #76 ) ) ;
ENDSEC;
END-ISO-10303-21;
