ISO-10303-21;
HEADER;
FILE_DESCRIPTION (( 'STEP AP203' ),
    '1' );
FILE_NAME ('FOCH-1.STEP',
    '2020-02-28T01:51:26',
    ( 'Î¢ÈíÓÃ»§' ),
    ( 'Î¢ÈíÖÐ¹ú' ),
    'SwSTEP 2.0',
    'SolidWorks 2016',
    '' );
FILE_SCHEMA (( 'CONFIG_CONTROL_DESIGN' ));
ENDSEC;

DATA;
#1 = CC_DESIGN_SECURITY_CLASSIFICATION ( #216, ( #225 ) ) ;
#2 = DIRECTION ( 'NONE',  ( 0.0000000000000000000, 0.0000000000000000000, 1.000000000000000000 ) ) ;
#3 = CC_DESIGN_APPROVAL ( #176, ( #216 ) ) ;
#4 = DIRECTION ( 'NONE',  ( -1.000000000000000000, 8.444109021985149600E-018, 0.0000000000000000000 ) ) ;
#5 = DIRECTION ( 'NONE',  ( 0.0000000000000000000, 0.0000000000000000000, 1.000000000000000000 ) ) ;
#6 = DATE_TIME_ROLE ( 'classification_date' ) ;
#7 = LINE ( 'NONE', #65, #222 ) ;
#8 = ADVANCED_FACE ( 'NONE', ( #155 ), #38, .F. ) ;
#9 = AXIS2_PLACEMENT_3D ( 'NONE', #86, #5, #127 ) ;
#10 = UNCERTAINTY_MEASURE_WITH_UNIT (LENGTH_MEASURE( 1.000000000000000100E-005 ), #250, 'distance_accuracy_value', 'NONE');
#11 = AXIS2_PLACEMENT_3D ( 'NONE', #271, #179, #162 ) ;
#12 = CIRCLE ( 'NONE', #264, 0.1249999999999996500 ) ;
#13 = FACE_OUTER_BOUND ( 'NONE', #187, .T. ) ;
#14 = COORDINATED_UNIVERSAL_TIME_OFFSET ( 8, 0, .AHEAD. ) ;
#15 = AXIS2_PLACEMENT_3D ( 'NONE', #272, #164, #20 ) ;
#16 = PRODUCT_RELATED_PRODUCT_CATEGORY ( 'detail', '', ( #117 ) ) ;
#17 = VECTOR ( 'NONE', #141, 1000.000000000000000 ) ;
#18 = DIRECTION ( 'NONE',  ( 1.000000000000000000, 0.0000000000000000000, 0.0000000000000000000 ) ) ;
#19 = ORIENTED_EDGE ( 'NONE', *, *, #32, .T. ) ;
#20 = DIRECTION ( 'NONE',  ( 1.000000000000000000, 0.0000000000000000000, 0.0000000000000000000 ) ) ;
#21 = CARTESIAN_POINT ( 'NONE',  ( 0.0000000000000000000, 0.0000000000000000000, 66.00000000000000000 ) ) ;
#22 = EDGE_CURVE ( 'NONE', #75, #192, #132, .T. ) ;
#23 =( GEOMETRIC_REPRESENTATION_CONTEXT ( 3 ) GLOBAL_UNCERTAINTY_ASSIGNED_CONTEXT ( ( #10 ) ) GLOBAL_UNIT_ASSIGNED_CONTEXT ( ( #250, #229, #107 ) ) REPRESENTATION_CONTEXT ( 'NONE', 'WORKASPACE' ) );
#24 = CARTESIAN_POINT ( 'NONE',  ( 1.055513627748140800E-018, 0.1249999999999996500, 0.0000000000000000000 ) ) ;
#25 = LOCAL_TIME ( 9, 51, 26.00000000000000000, #78 ) ;
#26 = APPLICATION_CONTEXT ( 'configuration controlled 3d designs of mechanical parts and assemblies' ) ;
#27 = EDGE_CURVE ( 'NONE', #197, #269, #261, .T. ) ;
#28 = ORIENTED_EDGE ( 'NONE', *, *, #74, .T. ) ;
#29 = APPROVAL_ROLE ( '' ) ;
#30 = ADVANCED_FACE ( 'NONE', ( #149 ), #189, .F. ) ;
#31 = APPROVAL_DATE_TIME ( #83, #71 ) ;
#32 = EDGE_CURVE ( 'NONE', #268, #269, #251, .T. ) ;
#33 = CARTESIAN_POINT ( 'NONE',  ( -3.000000000000000400, 0.0000000000000000000, 66.00000000000000000 ) ) ;
#34 = DIRECTION ( 'NONE',  ( 8.444109021985149600E-018, -1.000000000000000000, 0.0000000000000000000 ) ) ;
#35 = APPROVAL_PERSON_ORGANIZATION ( #90, #71, #88 ) ;
#36 = DIRECTION ( 'NONE',  ( 1.000000000000000000, 0.0000000000000000000, 0.0000000000000000000 ) ) ;
#37 = CARTESIAN_POINT ( 'NONE',  ( 3.209936565428830300, -0.1249999999999996300, 0.0000000000000000000 ) ) ;
#38 = PLANE ( 'NONE',  #262 ) ;
#39 = ORIENTED_EDGE ( 'NONE', *, *, #247, .T. ) ;
#40 = ORIENTED_EDGE ( 'NONE', *, *, #241, .F. ) ;
#41 = DIRECTION ( 'NONE',  ( -1.000000000000000000, 8.444109021985149600E-018, 0.0000000000000000000 ) ) ;
#42 = DIRECTION ( 'NONE',  ( -0.0000000000000000000, -0.0000000000000000000, 1.000000000000000000 ) ) ;
#43 = DIRECTION ( 'NONE',  ( 0.0000000000000000000, 0.0000000000000000000, 1.000000000000000000 ) ) ;
#44 = COORDINATED_UNIVERSAL_TIME_OFFSET ( 8, 0, .AHEAD. ) ;
#45 = MECHANICAL_CONTEXT ( 'NONE', #129, 'mechanical' ) ;
#46 = DIRECTION ( 'NONE',  ( 0.0000000000000000000, 0.0000000000000000000, 1.000000000000000000 ) ) ;
#47 = VERTEX_POINT ( 'NONE', #63 ) ;
#48 = ORIENTED_EDGE ( 'NONE', *, *, #73, .F. ) ;
#49 = APPROVAL_ROLE ( '' ) ;
#50 = ORIENTED_EDGE ( 'NONE', *, *, #236, .F. ) ;
#51 = LOCAL_TIME ( 9, 51, 26.00000000000000000, #104 ) ;
#52 = CARTESIAN_POINT ( 'NONE',  ( 0.0000000000000000000, 0.0000000000000000000, 0.0000000000000000000 ) ) ;
#53 = ORIENTED_EDGE ( 'NONE', *, *, #202, .F. ) ;
#54 = CC_DESIGN_APPROVAL ( #239, ( #234 ) ) ;
#55 = DIRECTION ( 'NONE',  ( -0.0000000000000000000, -0.0000000000000000000, -1.000000000000000000 ) ) ;
#56 = VECTOR ( 'NONE', #182, 1000.000000000000000 ) ;
#57 = ORGANIZATION ( 'Î´Ö¸¶¨', 'Î´Ö¸¶¨', '' ) ;
#58 = PRODUCT_DEFINITION_SHAPE ( 'NONE', 'NONE',  #234 ) ;
#59 = CC_DESIGN_PERSON_AND_ORGANIZATION_ASSIGNMENT ( #96, #150, ( #234 ) ) ;
#60 = DIRECTION ( 'NONE',  ( -0.0000000000000000000, -0.0000000000000000000, 1.000000000000000000 ) ) ;
#61 = CARTESIAN_POINT ( 'NONE',  ( 0.0000000000000000000, 0.0000000000000000000, 0.0000000000000000000 ) ) ;
#62 = FACE_OUTER_BOUND ( 'NONE', #136, .T. ) ;
#63 = CARTESIAN_POINT ( 'NONE',  ( 0.0000000000000000000, 0.1249999999999996500, 0.0000000000000000000 ) ) ;
#64 = CIRCLE ( 'NONE', #139, 3.000000000000000400 ) ;
#65 = CARTESIAN_POINT ( 'NONE',  ( 3.209936565428830300, -0.1249999999999996300, 66.00000000000000000 ) ) ;
#66 = DIRECTION ( 'NONE',  ( 1.000000000000000000, 0.0000000000000000000, 0.0000000000000000000 ) ) ;
#67 = CC_DESIGN_DATE_AND_TIME_ASSIGNMENT ( #143, #69, ( #234 ) ) ;
#68 = CARTESIAN_POINT ( 'NONE',  ( 0.0000000000000000000, 0.1249999999999996500, 66.00000000000000000 ) ) ;
#69 = DATE_TIME_ROLE ( 'creation_date' ) ;
#70 = VECTOR ( 'NONE', #205, 1000.000000000000000 ) ;
#71 = APPROVAL ( #211, 'Î´Ö¸¶¨' ) ;
#72 = APPROVAL_PERSON_ORGANIZATION ( #126, #176, #29 ) ;
#73 = EDGE_CURVE ( 'NONE', #109, #268, #106, .T. ) ;
#74 = EDGE_CURVE ( 'NONE', #263, #156, #175, .T. ) ;
#75 = VERTEX_POINT ( 'NONE', #92 ) ;
#76 = AXIS2_PLACEMENT_3D ( 'NONE', #21, #223, #244 ) ;
#77 = DIRECTION ( 'NONE',  ( 1.000000000000000000, 8.444109021985149600E-018, 0.0000000000000000000 ) ) ;
#78 = COORDINATED_UNIVERSAL_TIME_OFFSET ( 8, 0, .AHEAD. ) ;
#79 = ORIENTED_EDGE ( 'NONE', *, *, #202, .T. ) ;
#80 = CARTESIAN_POINT ( 'NONE',  ( -3.000000000000000400, 0.0000000000000000000, 0.0000000000000000000 ) ) ;
#81 = CARTESIAN_POINT ( 'NONE',  ( 0.0000000000000000000, 0.1249999999999996500, 66.00000000000000000 ) ) ;
#82 = DIRECTION ( 'NONE',  ( 8.444109021985149600E-018, 1.000000000000000000, 0.0000000000000000000 ) ) ;
#83 = DATE_AND_TIME ( #138, #190 ) ;
#84 = DIRECTION ( 'NONE',  ( 0.0000000000000000000, 0.0000000000000000000, 1.000000000000000000 ) ) ;
#85 = CARTESIAN_POINT ( 'NONE',  ( 2.997394702070450600, -0.1249999999999996300, 66.00000000000000000 ) ) ;
#86 = CARTESIAN_POINT ( 'NONE',  ( 0.0000000000000000000, 0.0000000000000000000, 0.0000000000000000000 ) ) ;
#87 = EDGE_LOOP ( 'NONE', ( #53, #178, #218, #28 ) ) ;
#88 = APPROVAL_ROLE ( '' ) ;
#89 = ADVANCED_FACE ( 'NONE', ( #160 ), #125, .T. ) ;
#90 = PERSON_AND_ORGANIZATION ( #137, #57 ) ;
#91 = CARTESIAN_POINT ( 'NONE',  ( 0.0000000000000000000, -0.1249999999999996500, 0.0000000000000000000 ) ) ;
#92 = CARTESIAN_POINT ( 'NONE',  ( 0.0000000000000000000, -0.1249999999999996500, 0.0000000000000000000 ) ) ;
#93 = ORIENTED_EDGE ( 'NONE', *, *, #32, .F. ) ;
#94 = ORIENTED_EDGE ( 'NONE', *, *, #102, .T. ) ;
#95 = DIRECTION ( 'NONE',  ( 0.0000000000000000000, 0.0000000000000000000, 1.000000000000000000 ) ) ;
#96 = PERSON_AND_ORGANIZATION ( #137, #57 ) ;
#97 = CARTESIAN_POINT ( 'NONE',  ( 2.997394702070450600, 0.1249999999999996300, 66.00000000000000000 ) ) ;
#98 = ORIENTED_EDGE ( 'NONE', *, *, #245, .T. ) ;
#99 = ORIENTED_EDGE ( 'NONE', *, *, #241, .T. ) ;
#100 = ORIENTED_EDGE ( 'NONE', *, *, #238, .F. ) ;
#101 = CARTESIAN_POINT ( 'NONE',  ( 2.997394702070450600, -0.1249999999999996300, 0.0000000000000000000 ) ) ;
#102 = EDGE_CURVE ( 'NONE', #161, #192, #12, .T. ) ;
#103 = DIRECTION ( 'NONE',  ( 1.000000000000000000, 8.444109021985149600E-018, -0.0000000000000000000 ) ) ;
#104 = COORDINATED_UNIVERSAL_TIME_OFFSET ( 8, 0, .AHEAD. ) ;
#105 = CARTESIAN_POINT ( 'NONE',  ( -3.000000000000000400, 0.0000000000000000000, 66.00000000000000000 ) ) ;
#106 = LINE ( 'NONE', #97, #17 ) ;
#107 =( NAMED_UNIT ( * ) SI_UNIT ( $, .STERADIAN. ) SOLID_ANGLE_UNIT ( ) );
#108 = DIRECTION ( 'NONE',  ( 1.000000000000000000, 0.0000000000000000000, 0.0000000000000000000 ) ) ;
#109 = VERTEX_POINT ( 'NONE', #123 ) ;
#110 = PERSON_AND_ORGANIZATION_ROLE ( 'design_supplier' ) ;
#111 = ADVANCED_FACE ( 'NONE', ( #231 ), #204, .F. ) ;
#112 = LINE ( 'NONE', #168, #56 ) ;
#113 = CYLINDRICAL_SURFACE ( 'NONE', #76, 3.000000000000000400 ) ;
#114 = EDGE_LOOP ( 'NONE', ( #94, #147, #260, #140 ) ) ;
#115 = FACE_OUTER_BOUND ( 'NONE', #87, .T. ) ;
#116 = CIRCLE ( 'NONE', #15, 3.000000000000000400 ) ;
#117 = PRODUCT ( 'FOCH-1', 'FOCH-1', '', ( #45 ) ) ;
#118 = AXIS2_PLACEMENT_3D ( 'NONE', #209, #224, #201 ) ;
#119 = DATE_AND_TIME ( #173, #228 ) ;
#120 = APPROVAL_DATE_TIME ( #119, #176 ) ;
#121 = DIRECTION ( 'NONE',  ( 1.000000000000000000, 0.0000000000000000000, 0.0000000000000000000 ) ) ;
#122 = VECTOR ( 'NONE', #2, 1000.000000000000000 ) ;
#123 = CARTESIAN_POINT ( 'NONE',  ( 2.997394702070450600, 0.1249999999999996300, 66.00000000000000000 ) ) ;
#124 = APPLICATION_PROTOCOL_DEFINITION ( 'international standard', 'config_control_design', 1994, #129 ) ;
#125 = PLANE ( 'NONE',  #273 ) ;
#126 = PERSON_AND_ORGANIZATION ( #137, #57 ) ;
#127 = DIRECTION ( 'NONE',  ( 1.000000000000000000, 0.0000000000000000000, 0.0000000000000000000 ) ) ;
#128 = AXIS2_PLACEMENT_3D ( 'NONE', #165, #43, #18 ) ;
#129 = APPLICATION_CONTEXT ( 'configuration controlled 3d designs of mechanical parts and assemblies' ) ;
#130 = PERSON_AND_ORGANIZATION_ROLE ( 'classification_officer' ) ;
#131 = ORIENTED_EDGE ( 'NONE', *, *, #74, .F. ) ;
#132 = LINE ( 'NONE', #91, #180 ) ;
#133 = CC_DESIGN_PERSON_AND_ORGANIZATION_ASSIGNMENT ( #240, #232, ( #225 ) ) ;
#134 = CC_DESIGN_APPROVAL ( #71, ( #225 ) ) ;
#135 = PERSON_AND_ORGANIZATION ( #137, #57 ) ;
#136 = EDGE_LOOP ( 'NONE', ( #93, #217, #39, #210, #208 ) ) ;
#137 = PERSON ( 'Î´Ö¸¶¨', 'Î´Ö¸¶¨', 'Î´Ö¸¶¨', ('Î´Ö¸¶¨'), ('Î´Ö¸¶¨'), ('Î´Ö¸¶¨') ) ;
#138 = CALENDAR_DATE ( 2020, 28, 2 ) ;
#139 = AXIS2_PLACEMENT_3D ( 'NONE', #61, #243, #108 ) ;
#140 = ORIENTED_EDGE ( 'NONE', *, *, #236, .T. ) ;
#141 = DIRECTION ( 'NONE',  ( -0.0000000000000000000, -0.0000000000000000000, -1.000000000000000000 ) ) ;
#142 = DIRECTION ( 'NONE',  ( -1.000000000000000000, 0.0000000000000000000, 0.0000000000000000000 ) ) ;
#143 = DATE_AND_TIME ( #193, #258 ) ;
#144 = EDGE_CURVE ( 'NONE', #75, #263, #170, .T. ) ;
#145 = CARTESIAN_POINT ( 'NONE',  ( 0.0000000000000000000, 0.0000000000000000000, 66.00000000000000000 ) ) ;
#146 = CARTESIAN_POINT ( 'NONE',  ( 2.997394702070450600, -0.1249999999999996300, 66.00000000000000000 ) ) ;
#147 = ORIENTED_EDGE ( 'NONE', *, *, #22, .F. ) ;
#148 = EDGE_LOOP ( 'NONE', ( #242, #50, #267, #48 ) ) ;
#149 = FACE_OUTER_BOUND ( 'NONE', #114, .T. ) ;
#150 = PERSON_AND_ORGANIZATION_ROLE ( 'creator' ) ;
#151 = ORIENTED_EDGE ( 'NONE', *, *, #144, .F. ) ;
#152 = APPROVAL_STATUS ( 'not_yet_approved' ) ;
#153 = APPROVAL_DATE_TIME ( #203, #239 ) ;
#154 = CARTESIAN_POINT ( 'NONE',  ( 0.0000000000000000000, 0.0000000000000000000, 0.0000000000000000000 ) ) ;
#155 = FACE_OUTER_BOUND ( 'NONE', #191, .T. ) ;
#156 = VERTEX_POINT ( 'NONE', #85 ) ;
#157 = ORIENTED_EDGE ( 'NONE', *, *, #245, .F. ) ;
#158 = SHAPE_DEFINITION_REPRESENTATION ( #58, #212 ) ;
#159 = APPROVAL_PERSON_ORGANIZATION ( #215, #239, #49 ) ;
#160 = FACE_OUTER_BOUND ( 'NONE', #259, .T. ) ;
#161 = VERTEX_POINT ( 'NONE', #68 ) ;
#162 = DIRECTION ( 'NONE',  ( 1.000000000000000000, 0.0000000000000000000, 0.0000000000000000000 ) ) ;
#163 = CYLINDRICAL_SURFACE ( 'NONE', #194, 3.000000000000000400 ) ;
#164 = DIRECTION ( 'NONE',  ( 0.0000000000000000000, 0.0000000000000000000, 1.000000000000000000 ) ) ;
#165 = CARTESIAN_POINT ( 'NONE',  ( 0.0000000000000000000, 0.0000000000000000000, 0.0000000000000000000 ) ) ;
#166 = CARTESIAN_POINT ( 'NONE',  ( 0.0000000000000000000, 0.0000000000000000000, 66.00000000000000000 ) ) ;
#167 = PERSON_AND_ORGANIZATION_ROLE ( 'design_owner' ) ;
#168 = CARTESIAN_POINT ( 'NONE',  ( 0.0000000000000000000, 0.1249999999999996500, 0.0000000000000000000 ) ) ;
#169 = APPROVAL_STATUS ( 'not_yet_approved' ) ;
#170 = LINE ( 'NONE', #185, #70 ) ;
#171 = ADVANCED_FACE ( 'NONE', ( #115 ), #163, .T. ) ;
#172 = CIRCLE ( 'NONE', #128, 0.1249999999999996500 ) ;
#173 = CALENDAR_DATE ( 2020, 28, 2 ) ;
#174 = CC_DESIGN_PERSON_AND_ORGANIZATION_ASSIGNMENT ( #135, #130, ( #216 ) ) ;
#175 = LINE ( 'NONE', #146, #122 ) ;
#176 = APPROVAL ( #152, 'Î´Ö¸¶¨' ) ;
#177 = DATE_AND_TIME ( #235, #25 ) ;
#178 = ORIENTED_EDGE ( 'NONE', *, *, #27, .T. ) ;
#179 = DIRECTION ( 'NONE',  ( 0.0000000000000000000, 0.0000000000000000000, 1.000000000000000000 ) ) ;
#180 = VECTOR ( 'NONE', #42, 1000.000000000000000 ) ;
#181 = CARTESIAN_POINT ( 'NONE',  ( 0.0000000000000000000, 0.0000000000000000000, 66.00000000000000000 ) ) ;
#182 = DIRECTION ( 'NONE',  ( -0.0000000000000000000, -0.0000000000000000000, 1.000000000000000000 ) ) ;
#183 = PERSON_AND_ORGANIZATION ( #137, #57 ) ;
#184 = DIRECTION ( 'NONE',  ( 1.000000000000000000, 0.0000000000000000000, -0.0000000000000000000 ) ) ;
#185 = CARTESIAN_POINT ( 'NONE',  ( 3.209936565428830300, -0.1249999999999996300, 0.0000000000000000000 ) ) ;
#186 = APPLICATION_PROTOCOL_DEFINITION ( 'international standard', 'config_control_design', 1994, #26 ) ;
#187 = EDGE_LOOP ( 'NONE', ( #237, #157, #207, #19 ) ) ;
#188 = ADVANCED_FACE ( 'NONE', ( #62 ), #246, .F. ) ;
#189 = CYLINDRICAL_SURFACE ( 'NONE', #249, 0.1249999999999996500 ) ;
#190 = LOCAL_TIME ( 9, 51, 26.00000000000000000, #248 ) ;
#191 = EDGE_LOOP ( 'NONE', ( #151, #195, #99, #131 ) ) ;
#192 = VERTEX_POINT ( 'NONE', #276 ) ;
#193 = CALENDAR_DATE ( 2020, 28, 2 ) ;
#194 = AXIS2_PLACEMENT_3D ( 'NONE', #166, #226, #142 ) ;
#195 = ORIENTED_EDGE ( 'NONE', *, *, #22, .T. ) ;
#196 = VECTOR ( 'NONE', #55, 1000.000000000000000 ) ;
#197 = VERTEX_POINT ( 'NONE', #105 ) ;
#198 = CARTESIAN_POINT ( 'NONE',  ( 2.997394702070450600, 0.1249999999999996300, 0.0000000000000000000 ) ) ;
#199 = CC_DESIGN_DATE_AND_TIME_ASSIGNMENT ( #177, #6, ( #216 ) ) ;
#200 = DIRECTION ( 'NONE',  ( -1.000000000000000000, 8.444109021985149600E-018, -0.0000000000000000000 ) ) ;
#201 = DIRECTION ( 'NONE',  ( 1.000000000000000000, 0.0000000000000000000, -0.0000000000000000000 ) ) ;
#202 = EDGE_CURVE ( 'NONE', #197, #156, #219, .T. ) ;
#203 = DATE_AND_TIME ( #265, #51 ) ;
#204 = PLANE ( 'NONE',  #227 ) ;
#205 = DIRECTION ( 'NONE',  ( 1.000000000000000000, 8.444109021985149600E-018, -0.0000000000000000000 ) ) ;
#206 = CARTESIAN_POINT ( 'NONE',  ( 0.0000000000000000000, 0.1249999999999996500, 0.0000000000000000000 ) ) ;
#207 = ORIENTED_EDGE ( 'NONE', *, *, #73, .T. ) ;
#208 = ORIENTED_EDGE ( 'NONE', *, *, #266, .F. ) ;
#209 = CARTESIAN_POINT ( 'NONE',  ( 0.0000000000000000000, 0.0000000000000000000, 0.0000000000000000000 ) ) ;
#210 = ORIENTED_EDGE ( 'NONE', *, *, #144, .T. ) ;
#211 = APPROVAL_STATUS ( 'not_yet_approved' ) ;
#212 = ADVANCED_BREP_SHAPE_REPRESENTATION ( 'FOCH-1', ( #220, #9 ), #23 ) ;
#213 = VECTOR ( 'NONE', #200, 1000.000000000000000 ) ;
#214 = VECTOR ( 'NONE', #41, 1000.000000000000000 ) ;
#215 = PERSON_AND_ORGANIZATION ( #137, #57 ) ;
#216 = SECURITY_CLASSIFICATION ( '', '', #253 ) ;
#217 = ORIENTED_EDGE ( 'NONE', *, *, #270, .T. ) ;
#218 = ORIENTED_EDGE ( 'NONE', *, *, #266, .T. ) ;
#219 = CIRCLE ( 'NONE', #11, 3.000000000000000400 ) ;
#220 = MANIFOLD_SOLID_BREP ( 'ÇÐ³ý-À­Éì1', #233 ) ;
#221 = LINE ( 'NONE', #81, #213 ) ;
#222 = VECTOR ( 'NONE', #103, 1000.000000000000000 ) ;
#223 = DIRECTION ( 'NONE',  ( -0.0000000000000000000, -0.0000000000000000000, -1.000000000000000000 ) ) ;
#224 = DIRECTION ( 'NONE',  ( 0.0000000000000000000, 0.0000000000000000000, 1.000000000000000000 ) ) ;
#225 = PRODUCT_DEFINITION_FORMATION_WITH_SPECIFIED_SOURCE ( 'ÈÎºÎ', '', #117, .NOT_KNOWN. ) ;
#226 = DIRECTION ( 'NONE',  ( -0.0000000000000000000, -0.0000000000000000000, -1.000000000000000000 ) ) ;
#227 = AXIS2_PLACEMENT_3D ( 'NONE', #206, #82, #4 ) ;
#228 = LOCAL_TIME ( 9, 51, 26.00000000000000000, #14 ) ;
#229 =( NAMED_UNIT ( * ) PLANE_ANGLE_UNIT ( ) SI_UNIT ( $, .RADIAN. ) );
#230 = CC_DESIGN_PERSON_AND_ORGANIZATION_ASSIGNMENT ( #275, #167, ( #117 ) ) ;
#231 = FACE_OUTER_BOUND ( 'NONE', #148, .T. ) ;
#232 = PERSON_AND_ORGANIZATION_ROLE ( 'creator' ) ;
#233 = CLOSED_SHELL ( 'NONE', ( #171, #255, #89, #188, #111, #8, #30 ) ) ;
#234 = PRODUCT_DEFINITION ( 'Î´Öª', '', #225, #256 ) ;
#235 = CALENDAR_DATE ( 2020, 28, 2 ) ;
#236 = EDGE_CURVE ( 'NONE', #47, #161, #112, .T. ) ;
#237 = ORIENTED_EDGE ( 'NONE', *, *, #27, .F. ) ;
#238 = EDGE_CURVE ( 'NONE', #109, #161, #221, .T. ) ;
#239 = APPROVAL ( #169, 'Î´Ö¸¶¨' ) ;
#240 = PERSON_AND_ORGANIZATION ( #137, #57 ) ;
#241 = EDGE_CURVE ( 'NONE', #192, #156, #7, .T. ) ;
#242 = ORIENTED_EDGE ( 'NONE', *, *, #238, .T. ) ;
#243 = DIRECTION ( 'NONE',  ( 0.0000000000000000000, 0.0000000000000000000, 1.000000000000000000 ) ) ;
#244 = DIRECTION ( 'NONE',  ( -1.000000000000000000, 0.0000000000000000000, 0.0000000000000000000 ) ) ;
#245 = EDGE_CURVE ( 'NONE', #109, #197, #116, .T. ) ;
#246 = PLANE ( 'NONE',  #118 ) ;
#247 = EDGE_CURVE ( 'NONE', #47, #75, #172, .T. ) ;
#248 = COORDINATED_UNIVERSAL_TIME_OFFSET ( 8, 0, .AHEAD. ) ;
#249 = AXIS2_PLACEMENT_3D ( 'NONE', #52, #60, #36 ) ;
#250 =( LENGTH_UNIT ( ) NAMED_UNIT ( * ) SI_UNIT ( .MILLI., .METRE. ) );
#251 = CIRCLE ( 'NONE', #257, 3.000000000000000400 ) ;
#252 = CC_DESIGN_PERSON_AND_ORGANIZATION_ASSIGNMENT ( #183, #110, ( #225 ) ) ;
#253 = SECURITY_CLASSIFICATION_LEVEL ( 'unclassified' ) ;
#254 = ORIENTED_EDGE ( 'NONE', *, *, #102, .F. ) ;
#255 = ADVANCED_FACE ( 'NONE', ( #13 ), #113, .T. ) ;
#256 = DESIGN_CONTEXT ( 'detailed design', #26, 'design' ) ;
#257 = AXIS2_PLACEMENT_3D ( 'NONE', #154, #95, #121 ) ;
#258 = LOCAL_TIME ( 9, 51, 26.00000000000000000, #44 ) ;
#259 = EDGE_LOOP ( 'NONE', ( #100, #98, #79, #40, #254 ) ) ;
#260 = ORIENTED_EDGE ( 'NONE', *, *, #247, .F. ) ;
#261 = LINE ( 'NONE', #33, #196 ) ;
#262 = AXIS2_PLACEMENT_3D ( 'NONE', #37, #34, #77 ) ;
#263 = VERTEX_POINT ( 'NONE', #101 ) ;
#264 = AXIS2_PLACEMENT_3D ( 'NONE', #181, #84, #66 ) ;
#265 = CALENDAR_DATE ( 2020, 28, 2 ) ;
#266 = EDGE_CURVE ( 'NONE', #269, #263, #64, .T. ) ;
#267 = ORIENTED_EDGE ( 'NONE', *, *, #270, .F. ) ;
#268 = VERTEX_POINT ( 'NONE', #198 ) ;
#269 = VERTEX_POINT ( 'NONE', #80 ) ;
#270 = EDGE_CURVE ( 'NONE', #268, #47, #274, .T. ) ;
#271 = CARTESIAN_POINT ( 'NONE',  ( 0.0000000000000000000, 0.0000000000000000000, 66.00000000000000000 ) ) ;
#272 = CARTESIAN_POINT ( 'NONE',  ( 0.0000000000000000000, 0.0000000000000000000, 66.00000000000000000 ) ) ;
#273 = AXIS2_PLACEMENT_3D ( 'NONE', #145, #46, #184 ) ;
#274 = LINE ( 'NONE', #24, #214 ) ;
#275 = PERSON_AND_ORGANIZATION ( #137, #57 ) ;
#276 = CARTESIAN_POINT ( 'NONE',  ( 0.0000000000000000000, -0.1249999999999996500, 66.00000000000000000 ) ) ;
ENDSEC;
END-ISO-10303-21;
