ISO-10303-21;
HEADER;
FILE_DESCRIPTION (( 'STEP AP203' ),
    '1' );
FILE_NAME ('1.5.4.5-ZXG-9.5-30.STEP',
    '2024-05-29T06:48:36',
    ( '' ),
    ( '' ),
    'SwSTEP 2.0',
    'SolidWorks 2021',
    '' );
FILE_SCHEMA (( 'CONFIG_CONTROL_DESIGN' ));
ENDSEC;

DATA;
#1 = EDGE_CURVE ( 'NONE', #285, #22, #53, .T. ) ;
#2 = PERSON_AND_ORGANIZATION_ROLE ( 'classification_officer' ) ;
#3 = CARTESIAN_POINT ( 'NONE',  ( 1.500000000000000000, 0.000000000000000000, -0.01499999999999999771 ) ) ;
#4 = CIRCLE ( 'NONE', #130, 4.750000000000000000 ) ;
#5 = LOCAL_TIME ( 14, 48, 36.00000000000000000, #268 ) ;
#6 = FACE_BOUND ( 'NONE', #122, .T. ) ;
#7 = PERSON_AND_ORGANIZATION ( #109, #278 ) ;
#8 = ORIENTED_EDGE ( 'NONE', *, *, #262, .T. ) ;
#9 = PERSON_AND_ORGANIZATION ( #109, #278 ) ;
#10 = VERTEX_POINT ( 'NONE', #246 ) ;
#11 = EDGE_CURVE ( 'NONE', #205, #54, #31, .T. ) ;
#12 = CARTESIAN_POINT ( 'NONE',  ( -1.500000000000000000, 0.05000000000000000278, -0.01499999999999999771 ) ) ;
#13 = VECTOR ( 'NONE', #149, 1000.000000000000000 ) ;
#14 = ORIENTED_EDGE ( 'NONE', *, *, #273, .T. ) ;
#15 = PERSON_AND_ORGANIZATION ( #109, #278 ) ;
#16 = AXIS2_PLACEMENT_3D ( 'NONE', #40, #21, #186 ) ;
#17 = ORIENTED_EDGE ( 'NONE', *, *, #86, .T. ) ;
#18 = DIRECTION ( 'NONE',  ( -0.000000000000000000, -1.000000000000000000, -0.000000000000000000 ) ) ;
#19 = CARTESIAN_POINT ( 'NONE',  ( 5.817072295949927426E-16, 0.05000000000000000278, 4.750000000000000000 ) ) ;
#20 = DIRECTION ( 'NONE',  ( 0.000000000000000000, 0.000000000000000000, 1.000000000000000000 ) ) ;
#21 = DIRECTION ( 'NONE',  ( 1.000000000000000000, 0.000000000000000000, 0.000000000000000000 ) ) ;
#22 = VERTEX_POINT ( 'NONE', #39 ) ;
#23 = APPROVAL_DATE_TIME ( #255, #215 ) ;
#24 = CARTESIAN_POINT ( 'NONE',  ( 1.500000000000000000, 0.05000000000000000278, -0.01499999999999999771 ) ) ;
#25 = VECTOR ( 'NONE', #138, 1000.000000000000000 ) ;
#26 = EDGE_LOOP ( 'NONE', ( #288, #87, #260, #28 ) ) ;
#27 = DIRECTION ( 'NONE',  ( 0.000000000000000000, 0.000000000000000000, 1.000000000000000000 ) ) ;
#28 = ORIENTED_EDGE ( 'NONE', *, *, #290, .T. ) ;
#29 = ORIENTED_EDGE ( 'NONE', *, *, #1, .F. ) ;
#30 = PERSON_AND_ORGANIZATION_ROLE ( 'design_owner' ) ;
#31 = LINE ( 'NONE', #306, #233 ) ;
#32 = APPROVAL_STATUS ( 'not_yet_approved' ) ;
#33 = CARTESIAN_POINT ( 'NONE',  ( 1.500000000000000000, 0.000000000000000000, 0.01500000000000000118 ) ) ;
#34 = VECTOR ( 'NONE', #239, 1000.000000000000000 ) ;
#35 = ORIENTED_EDGE ( 'NONE', *, *, #37, .F. ) ;
#36 = APPROVAL_PERSON_ORGANIZATION ( #15, #128, #251 ) ;
#37 = EDGE_CURVE ( 'NONE', #22, #300, #223, .T. ) ;
#38 = PERSON_AND_ORGANIZATION ( #109, #278 ) ;
#39 = CARTESIAN_POINT ( 'NONE',  ( 0.000000000000000000, 0.05000000000000000278, -4.750000000000000000 ) ) ;
#40 = CARTESIAN_POINT ( 'NONE',  ( -1.500000000000000000, 0.05000000000000000278, -0.01499999999999999771 ) ) ;
#41 = CC_DESIGN_PERSON_AND_ORGANIZATION_ASSIGNMENT ( #155, #303, ( #127 ) ) ;
#42 = DIRECTION ( 'NONE',  ( 0.000000000000000000, 0.000000000000000000, -1.000000000000000000 ) ) ;
#43 = AXIS2_PLACEMENT_3D ( 'NONE', #196, #293, #123 ) ;
#44 = COORDINATED_UNIVERSAL_TIME_OFFSET ( 8, 0, .AHEAD. ) ;
#45 = FACE_OUTER_BOUND ( 'NONE', #69, .T. ) ;
#46 = DIRECTION ( 'NONE',  ( -1.000000000000000000, 0.000000000000000000, -0.000000000000000000 ) ) ;
#47 = CARTESIAN_POINT ( 'NONE',  ( -1.500000000000000000, 0.000000000000000000, -0.01499999999999999771 ) ) ;
#48 =( GEOMETRIC_REPRESENTATION_CONTEXT ( 3 ) GLOBAL_UNCERTAINTY_ASSIGNED_CONTEXT ( ( #267 ) ) GLOBAL_UNIT_ASSIGNED_CONTEXT ( ( #191, #142, #270 ) ) REPRESENTATION_CONTEXT ( 'NONE', 'WORKASPACE' ) );
#49 = ORIENTED_EDGE ( 'NONE', *, *, #202, .F. ) ;
#50 = CALENDAR_DATE ( 2024, 29, 5 ) ;
#51 = ORIENTED_EDGE ( 'NONE', *, *, #105, .F. ) ;
#52 = VERTEX_POINT ( 'NONE', #132 ) ;
#53 = CIRCLE ( 'NONE', #305, 4.750000000000000000 ) ;
#54 = VERTEX_POINT ( 'NONE', #33 ) ;
#55 = PLANE ( 'NONE',  #249 ) ;
#56 = LINE ( 'NONE', #152, #25 ) ;
#57 = EDGE_CURVE ( 'NONE', #170, #145, #150, .T. ) ;
#58 = PERSON_AND_ORGANIZATION_ROLE ( 'design_supplier' ) ;
#59 = COORDINATED_UNIVERSAL_TIME_OFFSET ( 8, 0, .AHEAD. ) ;
#60 = CC_DESIGN_PERSON_AND_ORGANIZATION_ASSIGNMENT ( #279, #58, ( #127 ) ) ;
#61 = CALENDAR_DATE ( 2024, 29, 5 ) ;
#62 = AXIS2_PLACEMENT_3D ( 'NONE', #245, #76, #193 ) ;
#63 = ORIENTED_EDGE ( 'NONE', *, *, #154, .T. ) ;
#64 = DIRECTION ( 'NONE',  ( 0.000000000000000000, 1.000000000000000000, 0.000000000000000000 ) ) ;
#65 = PLANE ( 'NONE',  #118 ) ;
#66 = DIRECTION ( 'NONE',  ( 0.000000000000000000, -0.000000000000000000, 1.000000000000000000 ) ) ;
#67 = AXIS2_PLACEMENT_3D ( 'NONE', #140, #208, #71 ) ;
#68 = AXIS2_PLACEMENT_3D ( 'NONE', #116, #216, #27 ) ;
#69 = EDGE_LOOP ( 'NONE', ( #221, #49 ) ) ;
#70 = DATE_TIME_ROLE ( 'classification_date' ) ;
#71 = DIRECTION ( 'NONE',  ( 0.000000000000000000, 0.000000000000000000, -1.000000000000000000 ) ) ;
#72 = LINE ( 'NONE', #47, #212 ) ;
#73 = APPROVAL ( #96, 'Î´Ö¸¶¨' ) ;
#74 = AXIS2_PLACEMENT_3D ( 'NONE', #258, #94, #66 ) ;
#75 = ORIENTED_EDGE ( 'NONE', *, *, #202, .T. ) ;
#76 = DIRECTION ( 'NONE',  ( -0.000000000000000000, -1.000000000000000000, -0.000000000000000000 ) ) ;
#77 = ORIENTED_EDGE ( 'NONE', *, *, #302, .F. ) ;
#78 = EDGE_CURVE ( 'NONE', #170, #175, #103, .T. ) ;
#79 = FACE_OUTER_BOUND ( 'NONE', #165, .T. ) ;
#80 = ORIENTED_EDGE ( 'NONE', *, *, #209, .F. ) ;
#81 = CALENDAR_DATE ( 2024, 29, 5 ) ;
#82 = CARTESIAN_POINT ( 'NONE',  ( -1.500000000000000000, 0.05000000000000000278, -0.01499999999999999771 ) ) ;
#83 = ORIENTED_EDGE ( 'NONE', *, *, #78, .T. ) ;
#84 = DATE_AND_TIME ( #301, #164 ) ;
#85 = DATE_TIME_ROLE ( 'creation_date' ) ;
#86 = EDGE_CURVE ( 'NONE', #175, #205, #131, .T. ) ;
#87 = ORIENTED_EDGE ( 'NONE', *, *, #307, .F. ) ;
#88 = DIRECTION ( 'NONE',  ( 0.000000000000000000, 0.000000000000000000, 1.000000000000000000 ) ) ;
#89 = SECURITY_CLASSIFICATION ( '', '', #129 ) ;
#90 = DIRECTION ( 'NONE',  ( 0.000000000000000000, 0.000000000000000000, 1.000000000000000000 ) ) ;
#91 = CARTESIAN_POINT ( 'NONE',  ( 0.000000000000000000, 0.000000000000000000, 0.000000000000000000 ) ) ;
#92 = LINE ( 'NONE', #24, #292 ) ;
#93 = EDGE_CURVE ( 'NONE', #52, #101, #194, .T. ) ;
#94 = DIRECTION ( 'NONE',  ( 0.000000000000000000, 1.000000000000000000, 0.000000000000000000 ) ) ;
#95 = DESIGN_CONTEXT ( 'detailed design', #222, 'design' ) ;
#96 = APPROVAL_STATUS ( 'not_yet_approved' ) ;
#97 = MECHANICAL_CONTEXT ( 'NONE', #188, 'mechanical' ) ;
#98 = ADVANCED_FACE ( 'NONE', ( #79 ), #55, .T. ) ;
#99 = VECTOR ( 'NONE', #176, 1000.000000000000000 ) ;
#100 = ORIENTED_EDGE ( 'NONE', *, *, #78, .F. ) ;
#101 = VERTEX_POINT ( 'NONE', #106 ) ;
#102 = PERSON_AND_ORGANIZATION ( #109, #278 ) ;
#103 = LINE ( 'NONE', #82, #99 ) ;
#104 = LOCAL_TIME ( 14, 48, 36.00000000000000000, #247 ) ;
#105 = EDGE_CURVE ( 'NONE', #52, #170, #56, .T. ) ;
#106 = CARTESIAN_POINT ( 'NONE',  ( 1.500000000000000000, 0.000000000000000000, -0.01499999999999999771 ) ) ;
#107 = DIRECTION ( 'NONE',  ( 0.000000000000000000, 0.000000000000000000, 1.000000000000000000 ) ) ;
#108 = FACE_OUTER_BOUND ( 'NONE', #275, .T. ) ;
#109 = PERSON ( 'Î´Ö¸¶¨', 'Î´Ö¸¶¨', 'Î´Ö¸¶¨', ('Î´Ö¸¶¨'), ('Î´Ö¸¶¨'), ('Î´Ö¸¶¨') ) ;
#110 = CARTESIAN_POINT ( 'NONE',  ( 0.000000000000000000, 0.05000000000000000278, 0.000000000000000000 ) ) ;
#111 = CARTESIAN_POINT ( 'NONE',  ( 5.817072295949927426E-16, 0.000000000000000000, 4.750000000000000000 ) ) ;
#112 = DIRECTION ( 'NONE',  ( 0.000000000000000000, 0.000000000000000000, 1.000000000000000000 ) ) ;
#113 = PRODUCT_RELATED_PRODUCT_CATEGORY ( 'detail', '', ( #253 ) ) ;
#114 = FACE_OUTER_BOUND ( 'NONE', #197, .T. ) ;
#115 = AXIS2_PLACEMENT_3D ( 'NONE', #91, #232, #90 ) ;
#116 = CARTESIAN_POINT ( 'NONE',  ( 0.000000000000000000, 0.05000000000000000278, 0.000000000000000000 ) ) ;
#117 = DATE_AND_TIME ( #50, #5 ) ;
#118 = AXIS2_PLACEMENT_3D ( 'NONE', #207, #42, #46 ) ;
#119 = VECTOR ( 'NONE', #163, 1000.000000000000000 ) ;
#120 = ORIENTED_EDGE ( 'NONE', *, *, #209, .T. ) ;
#121 = CC_DESIGN_APPROVAL ( #215, ( #89 ) ) ;
#122 = EDGE_LOOP ( 'NONE', ( #51, #269, #236, #100 ) ) ;
#123 = DIRECTION ( 'NONE',  ( 1.000000000000000000, 0.000000000000000000, 0.000000000000000000 ) ) ;
#124 = ORIENTED_EDGE ( 'NONE', *, *, #262, .F. ) ;
#125 = EDGE_CURVE ( 'NONE', #285, #291, #282, .T. ) ;
#126 = CARTESIAN_POINT ( 'NONE',  ( -1.500000000000000000, 0.05000000000000000278, -0.01499999999999999771 ) ) ;
#127 = PRODUCT_DEFINITION_FORMATION_WITH_SPECIFIED_SOURCE ( 'ÈÎºÎ', '', #253, .NOT_KNOWN. ) ;
#128 = APPROVAL ( #32, 'Î´Ö¸¶¨' ) ;
#129 = SECURITY_CLASSIFICATION_LEVEL ( 'unclassified' ) ;
#130 = AXIS2_PLACEMENT_3D ( 'NONE', #161, #310, #112 ) ;
#131 = LINE ( 'NONE', #274, #277 ) ;
#132 = CARTESIAN_POINT ( 'NONE',  ( 1.500000000000000000, 0.05000000000000000278, -0.01499999999999999771 ) ) ;
#133 = APPROVAL_ROLE ( '' ) ;
#134 = CARTESIAN_POINT ( 'NONE',  ( 5.817072295949927426E-16, 0.05000000000000000278, 4.750000000000000000 ) ) ;
#135 = VECTOR ( 'NONE', #177, 1000.000000000000000 ) ;
#136 = DIRECTION ( 'NONE',  ( -1.000000000000000000, 0.000000000000000000, 0.000000000000000000 ) ) ;
#137 = LOCAL_TIME ( 14, 48, 36.00000000000000000, #286 ) ;
#138 = DIRECTION ( 'NONE',  ( -1.000000000000000000, -0.000000000000000000, -0.000000000000000000 ) ) ;
#139 = LINE ( 'NONE', #237, #304 ) ;
#140 = CARTESIAN_POINT ( 'NONE',  ( 0.000000000000000000, 0.05000000000000000278, 0.000000000000000000 ) ) ;
#141 = VECTOR ( 'NONE', #299, 1000.000000000000000 ) ;
#142 =( NAMED_UNIT ( * ) PLANE_ANGLE_UNIT ( ) SI_UNIT ( $, .RADIAN. ) );
#143 = ORIENTED_EDGE ( 'NONE', *, *, #11, .F. ) ;
#144 = APPROVAL_DATE_TIME ( #117, #73 ) ;
#145 = VERTEX_POINT ( 'NONE', #283 ) ;
#146 = DIRECTION ( 'NONE',  ( 0.000000000000000000, 0.000000000000000000, 1.000000000000000000 ) ) ;
#147 = ADVANCED_FACE ( 'NONE', ( #114, #6 ), #184, .T. ) ;
#148 = DIRECTION ( 'NONE',  ( 0.000000000000000000, 1.000000000000000000, 0.000000000000000000 ) ) ;
#149 = DIRECTION ( 'NONE',  ( -0.000000000000000000, -1.000000000000000000, -0.000000000000000000 ) ) ;
#150 = LINE ( 'NONE', #12, #174 ) ;
#151 = DATE_AND_TIME ( #81, #104 ) ;
#152 = CARTESIAN_POINT ( 'NONE',  ( -1.500000000000000000, 0.05000000000000000278, -0.01499999999999999771 ) ) ;
#153 = CIRCLE ( 'NONE', #68, 4.750000000000000000 ) ;
#154 = EDGE_CURVE ( 'NONE', #101, #145, #256, .T. ) ;
#155 = PERSON_AND_ORGANIZATION ( #109, #278 ) ;
#156 = CIRCLE ( 'NONE', #115, 4.750000000000000000 ) ;
#157 = APPROVAL_PERSON_ORGANIZATION ( #7, #73, #169 ) ;
#158 = ORIENTED_EDGE ( 'NONE', *, *, #11, .T. ) ;
#159 = ADVANCED_FACE ( 'NONE', ( #45, #235 ), #284, .F. ) ;
#160 = FACE_OUTER_BOUND ( 'NONE', #296, .T. ) ;
#161 = CARTESIAN_POINT ( 'NONE',  ( 0.000000000000000000, 0.000000000000000000, 0.000000000000000000 ) ) ;
#162 = APPROVAL_STATUS ( 'not_yet_approved' ) ;
#163 = DIRECTION ( 'NONE',  ( -1.000000000000000000, -0.000000000000000000, -0.000000000000000000 ) ) ;
#164 = LOCAL_TIME ( 14, 48, 36.00000000000000000, #59 ) ;
#165 = EDGE_LOOP ( 'NONE', ( #220, #171, #190, #244 ) ) ;
#166 = CALENDAR_DATE ( 2024, 29, 5 ) ;
#167 = DIRECTION ( 'NONE',  ( -0.000000000000000000, -0.000000000000000000, -1.000000000000000000 ) ) ;
#168 = CARTESIAN_POINT ( 'NONE',  ( -1.500000000000000000, 0.05000000000000000278, -0.01499999999999999771 ) ) ;
#169 = APPROVAL_ROLE ( '' ) ;
#170 = VERTEX_POINT ( 'NONE', #168 ) ;
#171 = ORIENTED_EDGE ( 'NONE', *, *, #93, .F. ) ;
#172 = LINE ( 'NONE', #218, #13 ) ;
#173 = ADVANCED_FACE ( 'NONE', ( #108 ), #287, .T. ) ;
#174 = VECTOR ( 'NONE', #18, 1000.000000000000000 ) ;
#175 = VERTEX_POINT ( 'NONE', #189 ) ;
#176 = DIRECTION ( 'NONE',  ( 0.000000000000000000, 0.000000000000000000, 1.000000000000000000 ) ) ;
#177 = DIRECTION ( 'NONE',  ( -0.000000000000000000, -1.000000000000000000, -0.000000000000000000 ) ) ;
#178 = AXIS2_PLACEMENT_3D ( 'NONE', #110, #64, #259 ) ;
#179 = CC_DESIGN_DATE_AND_TIME_ASSIGNMENT ( #151, #85, ( #238 ) ) ;
#180 = CARTESIAN_POINT ( 'NONE',  ( 0.000000000000000000, 0.05000000000000000278, -4.750000000000000000 ) ) ;
#181 = CC_DESIGN_APPROVAL ( #73, ( #238 ) ) ;
#182 = DIRECTION ( 'NONE',  ( 1.000000000000000000, 0.000000000000000000, 0.000000000000000000 ) ) ;
#183 = SHAPE_DEFINITION_REPRESENTATION ( #263, #264 ) ;
#184 = PLANE ( 'NONE',  #178 ) ;
#185 = CC_DESIGN_DATE_AND_TIME_ASSIGNMENT ( #206, #70, ( #89 ) ) ;
#186 = DIRECTION ( 'NONE',  ( 0.000000000000000000, 0.000000000000000000, -1.000000000000000000 ) ) ;
#187 = FACE_OUTER_BOUND ( 'NONE', #250, .T. ) ;
#188 = APPLICATION_CONTEXT ( 'configuration controlled 3d designs of mechanical parts and assemblies' ) ;
#189 = CARTESIAN_POINT ( 'NONE',  ( -1.500000000000000000, 0.05000000000000000278, 0.01500000000000000118 ) ) ;
#190 = ORIENTED_EDGE ( 'NONE', *, *, #105, .T. ) ;
#191 =( LENGTH_UNIT ( ) NAMED_UNIT ( * ) SI_UNIT ( .MILLI., .METRE. ) );
#192 = ORIENTED_EDGE ( 'NONE', *, *, #57, .F. ) ;
#193 = DIRECTION ( 'NONE',  ( 0.000000000000000000, 0.000000000000000000, -1.000000000000000000 ) ) ;
#194 = LINE ( 'NONE', #295, #135 ) ;
#195 = CC_DESIGN_PERSON_AND_ORGANIZATION_ASSIGNMENT ( #9, #226, ( #238 ) ) ;
#196 = CARTESIAN_POINT ( 'NONE',  ( 0.000000000000000000, 0.000000000000000000, 0.000000000000000000 ) ) ;
#197 = EDGE_LOOP ( 'NONE', ( #240, #254 ) ) ;
#198 = APPLICATION_PROTOCOL_DEFINITION ( 'international standard', 'config_control_design', 1994, #222 ) ;
#199 = AXIS2_PLACEMENT_3D ( 'NONE', #289, #136, #20 ) ;
#200 = ORIENTED_EDGE ( 'NONE', *, *, #125, .T. ) ;
#201 = DIRECTION ( 'NONE',  ( -0.000000000000000000, -1.000000000000000000, -0.000000000000000000 ) ) ;
#202 = EDGE_CURVE ( 'NONE', #291, #300, #4, .T. ) ;
#203 = MANIFOLD_SOLID_BREP ( 'Í¹Ì¨-À­Éì1', #243 ) ;
#204 = ADVANCED_FACE ( 'NONE', ( #187 ), #261, .T. ) ;
#205 = VERTEX_POINT ( 'NONE', #211 ) ;
#206 = DATE_AND_TIME ( #166, #137 ) ;
#207 = CARTESIAN_POINT ( 'NONE',  ( -1.500000000000000000, 0.05000000000000000278, 0.01500000000000000118 ) ) ;
#208 = DIRECTION ( 'NONE',  ( -0.000000000000000000, -1.000000000000000000, -0.000000000000000000 ) ) ;
#209 = EDGE_CURVE ( 'NONE', #54, #101, #308, .T. ) ;
#210 = FACE_OUTER_BOUND ( 'NONE', #26, .T. ) ;
#211 = CARTESIAN_POINT ( 'NONE',  ( -1.500000000000000000, 0.000000000000000000, 0.01500000000000000118 ) ) ;
#212 = VECTOR ( 'NONE', #88, 1000.000000000000000 ) ;
#213 = CC_DESIGN_SECURITY_CLASSIFICATION ( #89, ( #127 ) ) ;
#214 = CARTESIAN_POINT ( 'NONE',  ( -1.500000000000000000, 0.000000000000000000, -0.01499999999999999771 ) ) ;
#215 = APPROVAL ( #162, 'Î´Ö¸¶¨' ) ;
#216 = DIRECTION ( 'NONE',  ( 0.000000000000000000, 1.000000000000000000, 0.000000000000000000 ) ) ;
#217 = ORIENTED_EDGE ( 'NONE', *, *, #86, .F. ) ;
#218 = CARTESIAN_POINT ( 'NONE',  ( 1.500000000000000000, 0.05000000000000000278, 0.01500000000000000118 ) ) ;
#219 = APPROVAL_PERSON_ORGANIZATION ( #38, #215, #133 ) ;
#220 = ORIENTED_EDGE ( 'NONE', *, *, #154, .F. ) ;
#221 = ORIENTED_EDGE ( 'NONE', *, *, #290, .F. ) ;
#222 = APPLICATION_CONTEXT ( 'configuration controlled 3d designs of mechanical parts and assemblies' ) ;
#223 = LINE ( 'NONE', #180, #141 ) ;
#224 = CC_DESIGN_APPROVAL ( #128, ( #127 ) ) ;
#225 = DIRECTION ( 'NONE',  ( 1.000000000000000000, 0.000000000000000000, -0.000000000000000000 ) ) ;
#226 = PERSON_AND_ORGANIZATION_ROLE ( 'creator' ) ;
#227 = EDGE_CURVE ( 'NONE', #10, #52, #92, .T. ) ;
#228 = PERSON_AND_ORGANIZATION ( #109, #278 ) ;
#229 = ADVANCED_FACE ( 'NONE', ( #160 ), #265, .T. ) ;
#230 = ORIENTED_EDGE ( 'NONE', *, *, #302, .T. ) ;
#231 = EDGE_LOOP ( 'NONE', ( #120, #63, #8, #158 ) ) ;
#232 = DIRECTION ( 'NONE',  ( 0.000000000000000000, 1.000000000000000000, 0.000000000000000000 ) ) ;
#233 = VECTOR ( 'NONE', #248, 1000.000000000000000 ) ;
#234 = FACE_OUTER_BOUND ( 'NONE', #280, .T. ) ;
#235 = FACE_BOUND ( 'NONE', #231, .T. ) ;
#236 = ORIENTED_EDGE ( 'NONE', *, *, #273, .F. ) ;
#237 = CARTESIAN_POINT ( 'NONE',  ( -1.500000000000000000, 0.05000000000000000278, 0.01500000000000000118 ) ) ;
#238 = PRODUCT_DEFINITION ( 'Î´Öª', '', #127, #95 ) ;
#239 = DIRECTION ( 'NONE',  ( -0.000000000000000000, -0.000000000000000000, -1.000000000000000000 ) ) ;
#240 = ORIENTED_EDGE ( 'NONE', *, *, #307, .T. ) ;
#241 = CC_DESIGN_PERSON_AND_ORGANIZATION_ASSIGNMENT ( #228, #2, ( #89 ) ) ;
#242 = ORIENTED_EDGE ( 'NONE', *, *, #227, .T. ) ;
#243 = CLOSED_SHELL ( 'NONE', ( #204, #147, #159, #298, #229, #98, #173, #257 ) ) ;
#244 = ORIENTED_EDGE ( 'NONE', *, *, #57, .T. ) ;
#245 = CARTESIAN_POINT ( 'NONE',  ( 0.000000000000000000, 0.05000000000000000278, 0.000000000000000000 ) ) ;
#246 = CARTESIAN_POINT ( 'NONE',  ( 1.500000000000000000, 0.05000000000000000278, 0.01500000000000000118 ) ) ;
#247 = COORDINATED_UNIVERSAL_TIME_OFFSET ( 8, 0, .AHEAD. ) ;
#248 = DIRECTION ( 'NONE',  ( 1.000000000000000000, 0.000000000000000000, 0.000000000000000000 ) ) ;
#249 = AXIS2_PLACEMENT_3D ( 'NONE', #126, #146, #225 ) ;
#250 = EDGE_LOOP ( 'NONE', ( #29, #200, #75, #35 ) ) ;
#251 = APPROVAL_ROLE ( '' ) ;
#252 = CC_DESIGN_PERSON_AND_ORGANIZATION_ASSIGNMENT ( #102, #30, ( #253 ) ) ;
#253 = PRODUCT ( '1.5.4.5-ZXG-9.5-30', '1.5.4.5-ZXG-9.5-30', '', ( #97 ) ) ;
#254 = ORIENTED_EDGE ( 'NONE', *, *, #1, .T. ) ;
#255 = DATE_AND_TIME ( #61, #281 ) ;
#256 = LINE ( 'NONE', #214, #119 ) ;
#257 = ADVANCED_FACE ( 'NONE', ( #234 ), #65, .T. ) ;
#258 = CARTESIAN_POINT ( 'NONE',  ( 0.000000000000000000, 0.000000000000000000, 0.000000000000000000 ) ) ;
#259 = DIRECTION ( 'NONE',  ( 0.000000000000000000, -0.000000000000000000, 1.000000000000000000 ) ) ;
#260 = ORIENTED_EDGE ( 'NONE', *, *, #37, .T. ) ;
#261 = CYLINDRICAL_SURFACE ( 'NONE', #67, 4.750000000000000000 ) ;
#262 = EDGE_CURVE ( 'NONE', #145, #205, #72, .T. ) ;
#263 = PRODUCT_DEFINITION_SHAPE ( 'NONE', 'NONE',  #238 ) ;
#264 = ADVANCED_BREP_SHAPE_REPRESENTATION ( '1.5.4.5-ZXG-9.5-30', ( #203, #43 ), #48 ) ;
#265 = PLANE ( 'NONE',  #199 ) ;
#266 = CYLINDRICAL_SURFACE ( 'NONE', #62, 4.750000000000000000 ) ;
#267 = UNCERTAINTY_MEASURE_WITH_UNIT (LENGTH_MEASURE( 1.000000000000000082E-05 ), #191, 'distance_accuracy_value', 'NONE');
#268 = COORDINATED_UNIVERSAL_TIME_OFFSET ( 8, 0, .AHEAD. ) ;
#269 = ORIENTED_EDGE ( 'NONE', *, *, #227, .F. ) ;
#270 =( NAMED_UNIT ( * ) SI_UNIT ( $, .STERADIAN. ) SOLID_ANGLE_UNIT ( ) );
#271 = ORIENTED_EDGE ( 'NONE', *, *, #93, .T. ) ;
#272 = CARTESIAN_POINT ( 'NONE',  ( 0.000000000000000000, 0.05000000000000000278, 0.000000000000000000 ) ) ;
#273 = EDGE_CURVE ( 'NONE', #175, #10, #139, .T. ) ;
#274 = CARTESIAN_POINT ( 'NONE',  ( -1.500000000000000000, 0.05000000000000000278, 0.01500000000000000118 ) ) ;
#275 = EDGE_LOOP ( 'NONE', ( #124, #192, #83, #17 ) ) ;
#276 = APPROVAL_DATE_TIME ( #84, #128 ) ;
#277 = VECTOR ( 'NONE', #201, 1000.000000000000000 ) ;
#278 = ORGANIZATION ( 'Î´Ö¸¶¨', 'Î´Ö¸¶¨', '' ) ;
#279 = PERSON_AND_ORGANIZATION ( #109, #278 ) ;
#280 = EDGE_LOOP ( 'NONE', ( #143, #217, #14, #230 ) ) ;
#281 = LOCAL_TIME ( 14, 48, 36.00000000000000000, #44 ) ;
#282 = LINE ( 'NONE', #19, #309 ) ;
#283 = CARTESIAN_POINT ( 'NONE',  ( -1.500000000000000000, 0.000000000000000000, -0.01499999999999999771 ) ) ;
#284 = PLANE ( 'NONE',  #74 ) ;
#285 = VERTEX_POINT ( 'NONE', #134 ) ;
#286 = COORDINATED_UNIVERSAL_TIME_OFFSET ( 8, 0, .AHEAD. ) ;
#287 = PLANE ( 'NONE',  #16 ) ;
#288 = ORIENTED_EDGE ( 'NONE', *, *, #125, .F. ) ;
#289 = CARTESIAN_POINT ( 'NONE',  ( 1.500000000000000000, 0.05000000000000000278, -0.01499999999999999771 ) ) ;
#290 = EDGE_CURVE ( 'NONE', #300, #291, #156, .T. ) ;
#291 = VERTEX_POINT ( 'NONE', #111 ) ;
#292 = VECTOR ( 'NONE', #167, 1000.000000000000000 ) ;
#293 = DIRECTION ( 'NONE',  ( 0.000000000000000000, 0.000000000000000000, 1.000000000000000000 ) ) ;
#294 = APPLICATION_PROTOCOL_DEFINITION ( 'international standard', 'config_control_design', 1994, #188 ) ;
#295 = CARTESIAN_POINT ( 'NONE',  ( 1.500000000000000000, 0.05000000000000000278, -0.01499999999999999771 ) ) ;
#296 = EDGE_LOOP ( 'NONE', ( #80, #77, #242, #271 ) ) ;
#297 = CARTESIAN_POINT ( 'NONE',  ( 0.000000000000000000, 0.000000000000000000, -4.750000000000000000 ) ) ;
#298 = ADVANCED_FACE ( 'NONE', ( #210 ), #266, .T. ) ;
#299 = DIRECTION ( 'NONE',  ( -0.000000000000000000, -1.000000000000000000, -0.000000000000000000 ) ) ;
#300 = VERTEX_POINT ( 'NONE', #297 ) ;
#301 = CALENDAR_DATE ( 2024, 29, 5 ) ;
#302 = EDGE_CURVE ( 'NONE', #10, #54, #172, .T. ) ;
#303 = PERSON_AND_ORGANIZATION_ROLE ( 'creator' ) ;
#304 = VECTOR ( 'NONE', #182, 1000.000000000000000 ) ;
#305 = AXIS2_PLACEMENT_3D ( 'NONE', #272, #148, #107 ) ;
#306 = CARTESIAN_POINT ( 'NONE',  ( -1.500000000000000000, 0.000000000000000000, 0.01500000000000000118 ) ) ;
#307 = EDGE_CURVE ( 'NONE', #22, #285, #153, .T. ) ;
#308 = LINE ( 'NONE', #3, #34 ) ;
#309 = VECTOR ( 'NONE', #311, 1000.000000000000000 ) ;
#310 = DIRECTION ( 'NONE',  ( 0.000000000000000000, 1.000000000000000000, 0.000000000000000000 ) ) ;
#311 = DIRECTION ( 'NONE',  ( -0.000000000000000000, -1.000000000000000000, -0.000000000000000000 ) ) ;
ENDSEC;
END-ISO-10303-21;
