ISO-10303-21;
HEADER;
FILE_DESCRIPTION (( 'STEP AP203' ),
    '1' );
FILE_NAME ('1.5.4.21-ZXG-9.5-500.STEP',
    '2024-05-29T06:50:32',
    ( '' ),
    ( '' ),
    'SwSTEP 2.0',
    'SolidWorks 2021',
    '' );
FILE_SCHEMA (( 'CONFIG_CONTROL_DESIGN' ));
ENDSEC;

DATA;
#1 = DIRECTION ( 'NONE',  ( -0.000000000000000000, -1.000000000000000000, -0.000000000000000000 ) ) ;
#2 = COORDINATED_UNIVERSAL_TIME_OFFSET ( 8, 0, .AHEAD. ) ;
#3 = CARTESIAN_POINT ( 'NONE',  ( 0.000000000000000000, 0.000000000000000000, 0.000000000000000000 ) ) ;
#4 = ORIENTED_EDGE ( 'NONE', *, *, #283, .T. ) ;
#5 = EDGE_CURVE ( 'NONE', #250, #206, #155, .T. ) ;
#6 = ORIENTED_EDGE ( 'NONE', *, *, #35, .T. ) ;
#7 = FACE_OUTER_BOUND ( 'NONE', #222, .T. ) ;
#8 = APPROVAL_DATE_TIME ( #274, #272 ) ;
#9 = AXIS2_PLACEMENT_3D ( 'NONE', #10, #307, #90 ) ;
#10 = CARTESIAN_POINT ( 'NONE',  ( 0.000000000000000000, 0.000000000000000000, 0.000000000000000000 ) ) ;
#11 = CARTESIAN_POINT ( 'NONE',  ( 0.000000000000000000, 0.05000000000000000278, -4.750000000000000000 ) ) ;
#12 = DIRECTION ( 'NONE',  ( -0.000000000000000000, -0.000000000000000000, -1.000000000000000000 ) ) ;
#13 = PERSON_AND_ORGANIZATION ( #81, #102 ) ;
#14 = CC_DESIGN_DATE_AND_TIME_ASSIGNMENT ( #207, #268, ( #261 ) ) ;
#15 = CARTESIAN_POINT ( 'NONE',  ( -1.499999999999999778, 0.000000000000000000, -0.2500000000000000000 ) ) ;
#16 = APPLICATION_CONTEXT ( 'configuration controlled 3d designs of mechanical parts and assemblies' ) ;
#17 = ADVANCED_FACE ( 'NONE', ( #201, #82 ), #52, .F. ) ;
#18 = CLOSED_SHELL ( 'NONE', ( #264, #234, #17, #57, #145, #157, #263, #220 ) ) ;
#19 = ADVANCED_BREP_SHAPE_REPRESENTATION ( '1.5.4.21-ZXG-9.5-500', ( #89, #149 ), #59 ) ;
#20 = EDGE_LOOP ( 'NONE', ( #200, #125, #243, #146 ) ) ;
#21 = EDGE_LOOP ( 'NONE', ( #45, #199 ) ) ;
#22 = ORIENTED_EDGE ( 'NONE', *, *, #76, .T. ) ;
#23 = AXIS2_PLACEMENT_3D ( 'NONE', #275, #63, #217 ) ;
#24 = EDGE_CURVE ( 'NONE', #147, #171, #98, .T. ) ;
#25 = VERTEX_POINT ( 'NONE', #74 ) ;
#26 = APPROVAL_DATE_TIME ( #175, #39 ) ;
#27 = CARTESIAN_POINT ( 'NONE',  ( 0.000000000000000000, 0.05000000000000000278, 0.000000000000000000 ) ) ;
#28 = CARTESIAN_POINT ( 'NONE',  ( 1.500000000000000222, 0.05000000000000000278, 0.2500000000000000000 ) ) ;
#29 = AXIS2_PLACEMENT_3D ( 'NONE', #259, #42, #254 ) ;
#30 = CARTESIAN_POINT ( 'NONE',  ( 1.500000000000000222, 0.000000000000000000, -0.2500000000000000000 ) ) ;
#31 = PRODUCT_DEFINITION_SHAPE ( 'NONE', 'NONE',  #83 ) ;
#32 = LINE ( 'NONE', #187, #75 ) ;
#33 = SECURITY_CLASSIFICATION_LEVEL ( 'unclassified' ) ;
#34 = CARTESIAN_POINT ( 'NONE',  ( 0.000000000000000000, 0.000000000000000000, -4.750000000000000000 ) ) ;
#35 = EDGE_CURVE ( 'NONE', #148, #196, #202, .T. ) ;
#36 = CARTESIAN_POINT ( 'NONE',  ( 0.000000000000000000, 0.05000000000000000278, -4.750000000000000000 ) ) ;
#37 = DIRECTION ( 'NONE',  ( -1.000000000000000000, 0.000000000000000000, -0.000000000000000000 ) ) ;
#38 = LINE ( 'NONE', #170, #215 ) ;
#39 = APPROVAL ( #66, 'Î´Ö¸¶¨' ) ;
#40 =( NAMED_UNIT ( * ) SI_UNIT ( $, .STERADIAN. ) SOLID_ANGLE_UNIT ( ) );
#41 = VECTOR ( 'NONE', #142, 1000.000000000000000 ) ;
#42 = DIRECTION ( 'NONE',  ( 0.000000000000000000, 0.000000000000000000, 1.000000000000000000 ) ) ;
#43 = CARTESIAN_POINT ( 'NONE',  ( 1.500000000000000222, 0.05000000000000000278, -0.2500000000000000000 ) ) ;
#44 = EDGE_CURVE ( 'NONE', #171, #25, #288, .T. ) ;
#45 = ORIENTED_EDGE ( 'NONE', *, *, #35, .F. ) ;
#46 = LOCAL_TIME ( 14, 50, 32.00000000000000000, #2 ) ;
#47 = ORIENTED_EDGE ( 'NONE', *, *, #181, .T. ) ;
#48 = VERTEX_POINT ( 'NONE', #30 ) ;
#49 = CC_DESIGN_APPROVAL ( #96, ( #185 ) ) ;
#50 = DIRECTION ( 'NONE',  ( 0.000000000000000000, 0.000000000000000000, 1.000000000000000000 ) ) ;
#51 = EDGE_CURVE ( 'NONE', #147, #197, #77, .T. ) ;
#52 = PLANE ( 'NONE',  #120 ) ;
#53 = APPROVAL_ROLE ( '' ) ;
#54 = ORIENTED_EDGE ( 'NONE', *, *, #212, .T. ) ;
#55 = DIRECTION ( 'NONE',  ( 0.000000000000000000, 0.000000000000000000, -1.000000000000000000 ) ) ;
#56 = DIRECTION ( 'NONE',  ( -1.000000000000000000, 0.000000000000000000, 0.000000000000000000 ) ) ;
#57 = ADVANCED_FACE ( 'NONE', ( #266 ), #271, .T. ) ;
#58 = DIRECTION ( 'NONE',  ( 0.000000000000000000, 0.000000000000000000, 1.000000000000000000 ) ) ;
#59 =( GEOMETRIC_REPRESENTATION_CONTEXT ( 3 ) GLOBAL_UNCERTAINTY_ASSIGNED_CONTEXT ( ( #129 ) ) GLOBAL_UNIT_ASSIGNED_CONTEXT ( ( #65, #310, #40 ) ) REPRESENTATION_CONTEXT ( 'NONE', 'WORKASPACE' ) );
#60 = CARTESIAN_POINT ( 'NONE',  ( 1.500000000000000222, 0.05000000000000000278, -0.2500000000000000000 ) ) ;
#61 = MECHANICAL_CONTEXT ( 'NONE', #223, 'mechanical' ) ;
#62 = EDGE_CURVE ( 'NONE', #171, #152, #179, .T. ) ;
#63 = DIRECTION ( 'NONE',  ( -0.000000000000000000, -1.000000000000000000, -0.000000000000000000 ) ) ;
#64 = PERSON_AND_ORGANIZATION ( #81, #102 ) ;
#65 =( LENGTH_UNIT ( ) NAMED_UNIT ( * ) SI_UNIT ( .MILLI., .METRE. ) );
#66 = APPROVAL_STATUS ( 'not_yet_approved' ) ;
#67 = LINE ( 'NONE', #233, #92 ) ;
#68 = ORIENTED_EDGE ( 'NONE', *, *, #62, .F. ) ;
#69 = EDGE_LOOP ( 'NONE', ( #240, #104, #54, #225 ) ) ;
#70 = AXIS2_PLACEMENT_3D ( 'NONE', #211, #230, #91 ) ;
#71 = CC_DESIGN_PERSON_AND_ORGANIZATION_ASSIGNMENT ( #303, #137, ( #261 ) ) ;
#72 = ORIENTED_EDGE ( 'NONE', *, *, #192, .T. ) ;
#73 = CALENDAR_DATE ( 2024, 29, 5 ) ;
#74 = CARTESIAN_POINT ( 'NONE',  ( 1.500000000000000222, 0.05000000000000000278, 0.2500000000000000000 ) ) ;
#75 = VECTOR ( 'NONE', #136, 1000.000000000000000 ) ;
#76 = EDGE_CURVE ( 'NONE', #25, #267, #246, .T. ) ;
#77 = LINE ( 'NONE', #178, #172 ) ;
#78 = ORIENTED_EDGE ( 'NONE', *, *, #24, .T. ) ;
#79 = APPROVAL_ROLE ( '' ) ;
#80 = DIRECTION ( 'NONE',  ( 0.000000000000000000, 1.000000000000000000, 0.000000000000000000 ) ) ;
#81 = PERSON ( 'Î´Ö¸¶¨', 'Î´Ö¸¶¨', 'Î´Ö¸¶¨', ('Î´Ö¸¶¨'), ('Î´Ö¸¶¨'), ('Î´Ö¸¶¨') ) ;
#82 = FACE_BOUND ( 'NONE', #69, .T. ) ;
#83 = PRODUCT_DEFINITION ( 'Î´Öª', '', #185, #244 ) ;
#84 = PERSON_AND_ORGANIZATION_ROLE ( 'creator' ) ;
#85 = CARTESIAN_POINT ( 'NONE',  ( -1.499999999999999778, 0.000000000000000000, 0.2500000000000000000 ) ) ;
#86 = DIRECTION ( 'NONE',  ( -0.000000000000000000, -0.000000000000000000, -1.000000000000000000 ) ) ;
#87 = APPLICATION_PROTOCOL_DEFINITION ( 'international standard', 'config_control_design', 1994, #223 ) ;
#88 = FACE_OUTER_BOUND ( 'NONE', #150, .T. ) ;
#89 = MANIFOLD_SOLID_BREP ( 'Í¹Ì¨-À­Éì1', #18 ) ;
#90 = DIRECTION ( 'NONE',  ( 0.000000000000000000, 0.000000000000000000, 1.000000000000000000 ) ) ;
#91 = DIRECTION ( 'NONE',  ( 0.000000000000000000, 0.000000000000000000, -1.000000000000000000 ) ) ;
#92 = VECTOR ( 'NONE', #12, 1000.000000000000000 ) ;
#93 = CC_DESIGN_PERSON_AND_ORGANIZATION_ASSIGNMENT ( #251, #84, ( #185 ) ) ;
#94 = ORIENTED_EDGE ( 'NONE', *, *, #167, .F. ) ;
#95 = ORIENTED_EDGE ( 'NONE', *, *, #296, .T. ) ;
#96 = APPROVAL ( #210, 'Î´Ö¸¶¨' ) ;
#97 = ORIENTED_EDGE ( 'NONE', *, *, #62, .T. ) ;
#98 = LINE ( 'NONE', #204, #116 ) ;
#99 = CC_DESIGN_PERSON_AND_ORGANIZATION_ASSIGNMENT ( #128, #224, ( #83 ) ) ;
#100 = CALENDAR_DATE ( 2024, 29, 5 ) ;
#101 = DIRECTION ( 'NONE',  ( 1.000000000000000000, 0.000000000000000000, 0.000000000000000000 ) ) ;
#102 = ORGANIZATION ( 'Î´Ö¸¶¨', 'Î´Ö¸¶¨', '' ) ;
#103 = CC_DESIGN_SECURITY_CLASSIFICATION ( #261, ( #185 ) ) ;
#104 = ORIENTED_EDGE ( 'NONE', *, *, #226, .T. ) ;
#105 = PERSON_AND_ORGANIZATION ( #81, #102 ) ;
#106 = DIRECTION ( 'NONE',  ( -0.000000000000000000, -1.000000000000000000, -0.000000000000000000 ) ) ;
#107 = PRODUCT ( '1.5.4.21-ZXG-9.5-500', '1.5.4.21-ZXG-9.5-500', '', ( #61 ) ) ;
#108 = APPROVAL_DATE_TIME ( #180, #96 ) ;
#109 = DIRECTION ( 'NONE',  ( 0.000000000000000000, 1.000000000000000000, 0.000000000000000000 ) ) ;
#110 = VECTOR ( 'NONE', #86, 1000.000000000000000 ) ;
#111 = LOCAL_TIME ( 14, 50, 32.00000000000000000, #287 ) ;
#112 = CARTESIAN_POINT ( 'NONE',  ( 0.000000000000000000, 0.05000000000000000278, 0.000000000000000000 ) ) ;
#113 = DIRECTION ( 'NONE',  ( 0.000000000000000000, 0.000000000000000000, 1.000000000000000000 ) ) ;
#114 = FACE_OUTER_BOUND ( 'NONE', #228, .T. ) ;
#115 = PLANE ( 'NONE',  #121 ) ;
#116 = VECTOR ( 'NONE', #156, 1000.000000000000000 ) ;
#117 = VECTOR ( 'NONE', #1, 1000.000000000000000 ) ;
#118 = CYLINDRICAL_SURFACE ( 'NONE', #23, 4.750000000000000000 ) ;
#119 = FACE_BOUND ( 'NONE', #20, .T. ) ;
#120 = AXIS2_PLACEMENT_3D ( 'NONE', #293, #133, #248 ) ;
#121 = AXIS2_PLACEMENT_3D ( 'NONE', #262, #141, #37 ) ;
#122 = EDGE_LOOP ( 'NONE', ( #282, #184, #78, #97 ) ) ;
#123 = ORIENTED_EDGE ( 'NONE', *, *, #226, .F. ) ;
#124 = EDGE_CURVE ( 'NONE', #250, #196, #32, .T. ) ;
#125 = ORIENTED_EDGE ( 'NONE', *, *, #192, .F. ) ;
#126 = AXIS2_PLACEMENT_3D ( 'NONE', #213, #256, #276 ) ;
#127 = ORIENTED_EDGE ( 'NONE', *, *, #296, .F. ) ;
#128 = PERSON_AND_ORGANIZATION ( #81, #102 ) ;
#129 = UNCERTAINTY_MEASURE_WITH_UNIT (LENGTH_MEASURE( 1.000000000000000082E-05 ), #65, 'distance_accuracy_value', 'NONE');
#130 = CARTESIAN_POINT ( 'NONE',  ( -1.499999999999999778, 0.05000000000000000278, 0.2500000000000000000 ) ) ;
#131 = SHAPE_DEFINITION_REPRESENTATION ( #31, #19 ) ;
#132 = ORIENTED_EDGE ( 'NONE', *, *, #5, .T. ) ;
#133 = DIRECTION ( 'NONE',  ( 0.000000000000000000, 1.000000000000000000, 0.000000000000000000 ) ) ;
#134 = EDGE_CURVE ( 'NONE', #152, #267, #182, .T. ) ;
#135 = PERSON_AND_ORGANIZATION ( #81, #102 ) ;
#136 = DIRECTION ( 'NONE',  ( -0.000000000000000000, -1.000000000000000000, -0.000000000000000000 ) ) ;
#137 = PERSON_AND_ORGANIZATION_ROLE ( 'classification_officer' ) ;
#138 = DIRECTION ( 'NONE',  ( -0.000000000000000000, -1.000000000000000000, -0.000000000000000000 ) ) ;
#139 = LINE ( 'NONE', #237, #110 ) ;
#140 = FACE_OUTER_BOUND ( 'NONE', #122, .T. ) ;
#141 = DIRECTION ( 'NONE',  ( 0.000000000000000000, 0.000000000000000000, -1.000000000000000000 ) ) ;
#142 = DIRECTION ( 'NONE',  ( -0.000000000000000000, -1.000000000000000000, -0.000000000000000000 ) ) ;
#143 = PRODUCT_RELATED_PRODUCT_CATEGORY ( 'detail', '', ( #107 ) ) ;
#144 = APPROVAL_PERSON_ORGANIZATION ( #105, #96, #79 ) ;
#145 = ADVANCED_FACE ( 'NONE', ( #7 ), #299, .T. ) ;
#146 = ORIENTED_EDGE ( 'NONE', *, *, #24, .F. ) ;
#147 = VERTEX_POINT ( 'NONE', #252 ) ;
#148 = VERTEX_POINT ( 'NONE', #34 ) ;
#149 = AXIS2_PLACEMENT_3D ( 'NONE', #198, #113, #302 ) ;
#150 = EDGE_LOOP ( 'NONE', ( #95, #132 ) ) ;
#151 = EDGE_CURVE ( 'NONE', #238, #48, #301, .T. ) ;
#152 = VERTEX_POINT ( 'NONE', #85 ) ;
#153 = CARTESIAN_POINT ( 'NONE',  ( 0.000000000000000000, 0.05000000000000000278, 0.000000000000000000 ) ) ;
#154 = COORDINATED_UNIVERSAL_TIME_OFFSET ( 8, 0, .AHEAD. ) ;
#155 = CIRCLE ( 'NONE', #253, 4.750000000000000000 ) ;
#156 = DIRECTION ( 'NONE',  ( 0.000000000000000000, 0.000000000000000000, 1.000000000000000000 ) ) ;
#157 = ADVANCED_FACE ( 'NONE', ( #161 ), #280, .T. ) ;
#158 = DIRECTION ( 'NONE',  ( 1.000000000000000000, 0.000000000000000000, 0.000000000000000000 ) ) ;
#159 = DIRECTION ( 'NONE',  ( 0.000000000000000000, 0.000000000000000000, 1.000000000000000000 ) ) ;
#160 = CC_DESIGN_PERSON_AND_ORGANIZATION_ASSIGNMENT ( #64, #165, ( #107 ) ) ;
#161 = FACE_OUTER_BOUND ( 'NONE', #269, .T. ) ;
#162 = CIRCLE ( 'NONE', #285, 4.750000000000000000 ) ;
#163 = CARTESIAN_POINT ( 'NONE',  ( -1.499999999999999778, 0.05000000000000000278, 0.2500000000000000000 ) ) ;
#164 = DIRECTION ( 'NONE',  ( -1.000000000000000000, -0.000000000000000000, -0.000000000000000000 ) ) ;
#165 = PERSON_AND_ORGANIZATION_ROLE ( 'design_owner' ) ;
#166 = DIRECTION ( 'NONE',  ( -0.000000000000000000, -1.000000000000000000, -0.000000000000000000 ) ) ;
#167 = EDGE_CURVE ( 'NONE', #267, #48, #67, .T. ) ;
#168 = APPROVAL_ROLE ( '' ) ;
#169 = LOCAL_TIME ( 14, 50, 32.00000000000000000, #154 ) ;
#170 = CARTESIAN_POINT ( 'NONE',  ( -1.499999999999999778, 0.000000000000000000, -0.2500000000000000000 ) ) ;
#171 = VERTEX_POINT ( 'NONE', #163 ) ;
#172 = VECTOR ( 'NONE', #138, 1000.000000000000000 ) ;
#173 = ORIENTED_EDGE ( 'NONE', *, *, #134, .F. ) ;
#174 = EDGE_LOOP ( 'NONE', ( #281, #265, #4, #245 ) ) ;
#175 = DATE_AND_TIME ( #73, #111 ) ;
#176 = VECTOR ( 'NONE', #166, 1000.000000000000000 ) ;
#177 = APPROVAL_PERSON_ORGANIZATION ( #188, #272, #53 ) ;
#178 = CARTESIAN_POINT ( 'NONE',  ( -1.499999999999999778, 0.05000000000000000278, -0.2500000000000000000 ) ) ;
#179 = LINE ( 'NONE', #130, #117 ) ;
#180 = DATE_AND_TIME ( #183, #195 ) ;
#181 = EDGE_CURVE ( 'NONE', #206, #148, #191, .T. ) ;
#182 = LINE ( 'NONE', #205, #231 ) ;
#183 = CALENDAR_DATE ( 2024, 29, 5 ) ;
#184 = ORIENTED_EDGE ( 'NONE', *, *, #51, .F. ) ;
#185 = PRODUCT_DEFINITION_FORMATION_WITH_SPECIFIED_SOURCE ( 'ÈÎºÎ', '', #107, .NOT_KNOWN. ) ;
#186 = PERSON_AND_ORGANIZATION_ROLE ( 'design_supplier' ) ;
#187 = CARTESIAN_POINT ( 'NONE',  ( 5.817072295949927426E-16, 0.05000000000000000278, 4.750000000000000000 ) ) ;
#188 = PERSON_AND_ORGANIZATION ( #81, #102 ) ;
#189 = FACE_OUTER_BOUND ( 'NONE', #174, .T. ) ;
#190 = DIRECTION ( 'NONE',  ( -1.000000000000000000, -0.000000000000000000, -0.000000000000000000 ) ) ;
#191 = LINE ( 'NONE', #36, #41 ) ;
#192 = EDGE_CURVE ( 'NONE', #25, #238, #139, .T. ) ;
#193 = DIRECTION ( 'NONE',  ( 0.000000000000000000, 0.000000000000000000, 1.000000000000000000 ) ) ;
#194 = CARTESIAN_POINT ( 'NONE',  ( -1.499999999999999778, 0.000000000000000000, -0.2500000000000000000 ) ) ;
#195 = LOCAL_TIME ( 14, 50, 32.00000000000000000, #298 ) ;
#196 = VERTEX_POINT ( 'NONE', #232 ) ;
#197 = VERTEX_POINT ( 'NONE', #194 ) ;
#198 = CARTESIAN_POINT ( 'NONE',  ( 0.000000000000000000, 0.000000000000000000, 0.000000000000000000 ) ) ;
#199 = ORIENTED_EDGE ( 'NONE', *, *, #283, .F. ) ;
#200 = ORIENTED_EDGE ( 'NONE', *, *, #289, .F. ) ;
#201 = FACE_OUTER_BOUND ( 'NONE', #21, .T. ) ;
#202 = CIRCLE ( 'NONE', #284, 4.750000000000000000 ) ;
#203 = CIRCLE ( 'NONE', #9, 4.750000000000000000 ) ;
#204 = CARTESIAN_POINT ( 'NONE',  ( -1.499999999999999778, 0.05000000000000000278, -0.2500000000000000000 ) ) ;
#205 = CARTESIAN_POINT ( 'NONE',  ( -1.499999999999999778, 0.000000000000000000, 0.2500000000000000000 ) ) ;
#206 = VERTEX_POINT ( 'NONE', #11 ) ;
#207 = DATE_AND_TIME ( #295, #255 ) ;
#208 = CARTESIAN_POINT ( 'NONE',  ( -1.499999999999999778, 0.05000000000000000278, 0.2500000000000000000 ) ) ;
#209 = CC_DESIGN_APPROVAL ( #272, ( #261 ) ) ;
#210 = APPROVAL_STATUS ( 'not_yet_approved' ) ;
#211 = CARTESIAN_POINT ( 'NONE',  ( -1.499999999999999778, 0.05000000000000000278, -0.2500000000000000000 ) ) ;
#212 = EDGE_CURVE ( 'NONE', #197, #152, #38, .T. ) ;
#213 = CARTESIAN_POINT ( 'NONE',  ( 0.000000000000000000, 0.05000000000000000278, 0.000000000000000000 ) ) ;
#214 = LINE ( 'NONE', #305, #290 ) ;
#215 = VECTOR ( 'NONE', #193, 1000.000000000000000 ) ;
#216 = CC_DESIGN_DATE_AND_TIME_ASSIGNMENT ( #292, #249, ( #83 ) ) ;
#217 = DIRECTION ( 'NONE',  ( 0.000000000000000000, 0.000000000000000000, -1.000000000000000000 ) ) ;
#218 = PLANE ( 'NONE',  #126 ) ;
#219 = ORIENTED_EDGE ( 'NONE', *, *, #124, .F. ) ;
#220 = ADVANCED_FACE ( 'NONE', ( #114 ), #115, .T. ) ;
#221 = AXIS2_PLACEMENT_3D ( 'NONE', #27, #106, #55 ) ;
#222 = EDGE_LOOP ( 'NONE', ( #94, #242, #72, #311 ) ) ;
#223 = APPLICATION_CONTEXT ( 'configuration controlled 3d designs of mechanical parts and assemblies' ) ;
#224 = PERSON_AND_ORGANIZATION_ROLE ( 'creator' ) ;
#225 = ORIENTED_EDGE ( 'NONE', *, *, #134, .T. ) ;
#226 = EDGE_CURVE ( 'NONE', #48, #197, #278, .T. ) ;
#227 = DIRECTION ( 'NONE',  ( -0.000000000000000000, -1.000000000000000000, -0.000000000000000000 ) ) ;
#228 = EDGE_LOOP ( 'NONE', ( #173, #68, #297, #22 ) ) ;
#229 = ORIENTED_EDGE ( 'NONE', *, *, #289, .T. ) ;
#230 = DIRECTION ( 'NONE',  ( 1.000000000000000000, 0.000000000000000000, 0.000000000000000000 ) ) ;
#231 = VECTOR ( 'NONE', #158, 1000.000000000000000 ) ;
#232 = CARTESIAN_POINT ( 'NONE',  ( 5.817072295949927426E-16, 0.000000000000000000, 4.750000000000000000 ) ) ;
#233 = CARTESIAN_POINT ( 'NONE',  ( 1.500000000000000222, 0.000000000000000000, -0.2500000000000000000 ) ) ;
#234 = ADVANCED_FACE ( 'NONE', ( #88, #119 ), #218, .T. ) ;
#235 = VECTOR ( 'NONE', #101, 1000.000000000000000 ) ;
#236 = VECTOR ( 'NONE', #227, 1000.000000000000000 ) ;
#237 = CARTESIAN_POINT ( 'NONE',  ( 1.500000000000000222, 0.05000000000000000278, -0.2500000000000000000 ) ) ;
#238 = VERTEX_POINT ( 'NONE', #43 ) ;
#239 = ORIENTED_EDGE ( 'NONE', *, *, #51, .T. ) ;
#240 = ORIENTED_EDGE ( 'NONE', *, *, #167, .T. ) ;
#241 = CC_DESIGN_PERSON_AND_ORGANIZATION_ASSIGNMENT ( #135, #186, ( #185 ) ) ;
#242 = ORIENTED_EDGE ( 'NONE', *, *, #76, .F. ) ;
#243 = ORIENTED_EDGE ( 'NONE', *, *, #44, .F. ) ;
#244 = DESIGN_CONTEXT ( 'detailed design', #16, 'design' ) ;
#245 = ORIENTED_EDGE ( 'NONE', *, *, #181, .F. ) ;
#246 = LINE ( 'NONE', #28, #236 ) ;
#247 = CALENDAR_DATE ( 2024, 29, 5 ) ;
#248 = DIRECTION ( 'NONE',  ( 0.000000000000000000, -0.000000000000000000, 1.000000000000000000 ) ) ;
#249 = DATE_TIME_ROLE ( 'creation_date' ) ;
#250 = VERTEX_POINT ( 'NONE', #308 ) ;
#251 = PERSON_AND_ORGANIZATION ( #81, #102 ) ;
#252 = CARTESIAN_POINT ( 'NONE',  ( -1.499999999999999778, 0.05000000000000000278, -0.2500000000000000000 ) ) ;
#253 = AXIS2_PLACEMENT_3D ( 'NONE', #153, #109, #50 ) ;
#254 = DIRECTION ( 'NONE',  ( 1.000000000000000000, 0.000000000000000000, -0.000000000000000000 ) ) ;
#255 = LOCAL_TIME ( 14, 50, 32.00000000000000000, #300 ) ;
#256 = DIRECTION ( 'NONE',  ( 0.000000000000000000, 1.000000000000000000, 0.000000000000000000 ) ) ;
#257 = DIRECTION ( 'NONE',  ( 0.000000000000000000, 1.000000000000000000, 0.000000000000000000 ) ) ;
#258 = APPLICATION_PROTOCOL_DEFINITION ( 'international standard', 'config_control_design', 1994, #16 ) ;
#259 = CARTESIAN_POINT ( 'NONE',  ( -1.499999999999999778, 0.05000000000000000278, -0.2500000000000000000 ) ) ;
#260 = VECTOR ( 'NONE', #190, 1000.000000000000000 ) ;
#261 = SECURITY_CLASSIFICATION ( '', '', #33 ) ;
#262 = CARTESIAN_POINT ( 'NONE',  ( -1.499999999999999778, 0.05000000000000000278, 0.2500000000000000000 ) ) ;
#263 = ADVANCED_FACE ( 'NONE', ( #140 ), #279, .T. ) ;
#264 = ADVANCED_FACE ( 'NONE', ( #189 ), #118, .T. ) ;
#265 = ORIENTED_EDGE ( 'NONE', *, *, #124, .T. ) ;
#266 = FACE_OUTER_BOUND ( 'NONE', #309, .T. ) ;
#267 = VERTEX_POINT ( 'NONE', #304 ) ;
#268 = DATE_TIME_ROLE ( 'classification_date' ) ;
#269 = EDGE_LOOP ( 'NONE', ( #123, #286, #229, #239 ) ) ;
#270 = APPROVAL_STATUS ( 'not_yet_approved' ) ;
#271 = CYLINDRICAL_SURFACE ( 'NONE', #221, 4.750000000000000000 ) ;
#272 = APPROVAL ( #270, 'Î´Ö¸¶¨' ) ;
#273 = CARTESIAN_POINT ( 'NONE',  ( 1.500000000000000222, 0.05000000000000000278, -0.2500000000000000000 ) ) ;
#274 = DATE_AND_TIME ( #247, #169 ) ;
#275 = CARTESIAN_POINT ( 'NONE',  ( 0.000000000000000000, 0.05000000000000000278, 0.000000000000000000 ) ) ;
#276 = DIRECTION ( 'NONE',  ( 0.000000000000000000, -0.000000000000000000, 1.000000000000000000 ) ) ;
#277 = CC_DESIGN_APPROVAL ( #39, ( #83 ) ) ;
#278 = LINE ( 'NONE', #15, #260 ) ;
#279 = PLANE ( 'NONE',  #70 ) ;
#280 = PLANE ( 'NONE',  #29 ) ;
#281 = ORIENTED_EDGE ( 'NONE', *, *, #5, .F. ) ;
#282 = ORIENTED_EDGE ( 'NONE', *, *, #212, .F. ) ;
#283 = EDGE_CURVE ( 'NONE', #196, #148, #203, .T. ) ;
#284 = AXIS2_PLACEMENT_3D ( 'NONE', #3, #80, #294 ) ;
#285 = AXIS2_PLACEMENT_3D ( 'NONE', #112, #257, #58 ) ;
#286 = ORIENTED_EDGE ( 'NONE', *, *, #151, .F. ) ;
#287 = COORDINATED_UNIVERSAL_TIME_OFFSET ( 8, 0, .AHEAD. ) ;
#288 = LINE ( 'NONE', #208, #235 ) ;
#289 = EDGE_CURVE ( 'NONE', #238, #147, #214, .T. ) ;
#290 = VECTOR ( 'NONE', #164, 1000.000000000000000 ) ;
#291 = APPROVAL_PERSON_ORGANIZATION ( #13, #39, #168 ) ;
#292 = DATE_AND_TIME ( #100, #46 ) ;
#293 = CARTESIAN_POINT ( 'NONE',  ( 0.000000000000000000, 0.000000000000000000, 0.000000000000000000 ) ) ;
#294 = DIRECTION ( 'NONE',  ( 0.000000000000000000, 0.000000000000000000, 1.000000000000000000 ) ) ;
#295 = CALENDAR_DATE ( 2024, 29, 5 ) ;
#296 = EDGE_CURVE ( 'NONE', #206, #250, #162, .T. ) ;
#297 = ORIENTED_EDGE ( 'NONE', *, *, #44, .T. ) ;
#298 = COORDINATED_UNIVERSAL_TIME_OFFSET ( 8, 0, .AHEAD. ) ;
#299 = PLANE ( 'NONE',  #306 ) ;
#300 = COORDINATED_UNIVERSAL_TIME_OFFSET ( 8, 0, .AHEAD. ) ;
#301 = LINE ( 'NONE', #60, #176 ) ;
#302 = DIRECTION ( 'NONE',  ( 1.000000000000000000, 0.000000000000000000, 0.000000000000000000 ) ) ;
#303 = PERSON_AND_ORGANIZATION ( #81, #102 ) ;
#304 = CARTESIAN_POINT ( 'NONE',  ( 1.500000000000000222, 0.000000000000000000, 0.2500000000000000000 ) ) ;
#305 = CARTESIAN_POINT ( 'NONE',  ( -1.499999999999999778, 0.05000000000000000278, -0.2500000000000000000 ) ) ;
#306 = AXIS2_PLACEMENT_3D ( 'NONE', #273, #56, #159 ) ;
#307 = DIRECTION ( 'NONE',  ( 0.000000000000000000, 1.000000000000000000, 0.000000000000000000 ) ) ;
#308 = CARTESIAN_POINT ( 'NONE',  ( 5.817072295949927426E-16, 0.05000000000000000278, 4.750000000000000000 ) ) ;
#309 = EDGE_LOOP ( 'NONE', ( #219, #127, #47, #6 ) ) ;
#310 =( NAMED_UNIT ( * ) PLANE_ANGLE_UNIT ( ) SI_UNIT ( $, .RADIAN. ) );
#311 = ORIENTED_EDGE ( 'NONE', *, *, #151, .T. ) ;
ENDSEC;
END-ISO-10303-21;
